tablaturas, partituras y acordes para guitarra
Busca por banda/artista:
 
y/o título de la canción:
A B C D E F G H I J K L M N O P Q R S T U V W X Y Z 0 1 2 3 4 5 6 7 8 9 / Top 100 tabs
Categorías
Usuarios
usuario:
Darse de alta
password:
Artistas más visitados
Publicidad
TOP acordes y tablaturas de Corcobado


Temblando
de Corcobado
Puntúa este acorde/tab:      
(0.3/5)
Reportar este acorde/tab
  Añadir a tus favoritos
  Imprimir
Introduccion se repite 2 veces
|--------------------------------------------------|
|-----5-2-------5-2--------------------------------|
|-3---------3-------3------------------------------|
|---3---------3-------5-0-3-0-3-0-5-0-3-0-3-0------|
|--------------------------------------------------|


la introduccion se mezcla con esto y se toca 1 veces
|-------------------------------------------------|esto se junta
|-------------------------------------------------|con el verso
|-------------------------------------------------|
|-1--1-1--1--1-1-1---5-0-3-0-3-0-5-0-3-0-3-0------|
|-------------------------------------------------|


verso  se repite 2 veces
|--------------------------------------------------------------|esto se junta
|-----5-2-------5-2-------5-2----------------------------------|con el segundo
|-3---------3---------3--------3--5-0-3-0-3-0-5-0-3-0-3-0------|verso
|---3---------3---------3--------------------------------------|
|--------------------------------------------------------------|


verso 2,  se mezcla con esto se repite 2 veces
|-------------------------------------------------|
|-------------------------------------------------|
|-------------------------------------------------|
|-1--1-1--1--1-1-1---5-0-3-0-3-0-5-0-3-0-3-0------|
|-------------------------------------------------|


 solo una vez
|---------------------------------------------------|
|-----5-2-------5-2-------------------------------- |
|-3---------3-------3--5-0-3-0-3-0-5-0-3-0-3-0------|
|---3---------3-------------------------------------|
|---------------------------------------------------|

 solo una vez
|-------------------------------------------------|
|-------------------------------------------------|
|-------------------------------------------------|
|-1--1-1--1--1-1-1---5-0-3-0-3-0-5-0-3-0-3-0------|
|-------------------------------------------------|


despues hay una pausa en la que no lleva bajo, y despues sigue esto:


coro se repite 2 veces
|---------------------------3-3-------------3-3-------------|
|-------------------------------3-3-------------3-3---------|
|-------------------------1---------4-4-1-1---------4-0-----|
|-2--2-2-2--2-5--5-5-5--5-----------------------------------|
|-----------------------------------------------------------|
cuando llegas al final, la segunda vez acaba en A# (cuerda 3ra. 1er. traste)


y eso es todo solo, se repite desde el inicio

nota: tocala en el orden que esta
nota2: esta trancripcion es para bajo de 5 cuerdas, pero no hay problema no se ocupa





esta tablatura se la dedico a un amigo que cuando la canta nadamas le falta que se
llame javier corcobado para que se escuche igual que la original, va pa´ti CESAR





***************************************************
* Transcrita por: B-e-N-j-A-m-I-n-_-K-a-B-r-E-r-A *
***************************************************
		   
AcordesyTabs.com © 2008 Acordes y Tablaturas para guitarra. Tabs and Chords for guitar. Aviso Legal - Contacto
El uso de este sitio está sujeto a la aceptación de los términos y condiciones (13 usuarios online)