tablaturas, partituras y acordes para guitarra
Busca por banda/artista:
 
y/o título de la canción:
A B C D E F G H I J K L M N O P Q R S T U V W X Y Z 0 1 2 3 4 5 6 7 8 9 / Top 100 tabs
Categorías
Usuarios
usuario:
Darse de alta
password:
Artistas más visitados
Publicidad
TOP acordes y tablaturas de Blur


Song
de Blur
Puntúa este acorde/tab:      
(0.2/5)
Reportar este acorde/tab
  Añadir a tus favoritos
  Imprimir


Subject: b/blur/song_2.crd
Date: Tue, 22 Apr 1997 14:59:35 -0400 (EDT)
From: VFGNLizard@aol.com

Artist:  Blur
Song:   Song 2

Transcribed by - Alex Benson



Clean Tone
    F    F          D#  D#  D#        G#  G#  A#  C    C  C
e:--------------------------------------------------------------------|
B:--10---10---X-X---8---8---8---X-X---13--13--15--17---17-17----------|
G:--10---10---X-X---8---8---8---X-X---13--13--15--17---17-17----------|
D:--10---10---X-X---8---8---8---X-X---13--13--15--17---17-17----------|2x
A:--8----8----X-X---6---6---6---X-X---11--11--13--17---15-15----------|
E:--------------------------------------------------------------------|
  


~Heavy Distortion~
    F    F          D#  D#  D#        G#  G#  A#  C    C  C
e:--------------------------------------------------------------------|
B:--------------------------------------------------------------------|
G:--10---10---X-X---8---8---8---X-X---13--13--15--17---17-17----------|4x
D:--10---10---X-X---8---8---8---X-X---13--13--15--17---17-17----------|
A:--8----8----X-X---6---6---6---X-X---11--11--13--17---15-15----------|
E:--------------------------------------------------------------------|

   Whooo Hooo!!!


Clean Tone
    F    F          D#  D#  D#        G#  G#  A#  C    C  C
e:--------------------------------------------------------------------|
B:--------------------------------------------------------------------|
G:--10---10---X-X---8---8---8---X-X---13--13--15--17---17-17----------|
D:--10---10---X-X---8---8---8---X-X---13--13--15--17---17-17----------|
A:--8----8----X-X---6---6---6---X-X---11--11--13--17---15-15----------|
E:--------------------------------------------------------------------|
    I   got   my  head checked


    F    F          D#  D#  D#        G#  G#  A#  C    C  C
e:--------------------------------------------------------------------|
B:--------------------------------------------------------------------|
G:--10---10---X-X---8---8---8---X-X---13--13--15--17---17-17----------|
D:--10---10---X-X---8---8---8---X-X---13--13--15--17---17-17----------|
A:--8----8----X-X---6---6---6---X-X---11--11--13--17---15-15----------|
E:--------------------------------------------------------------------|
  By   a    Jumbo     Jet


    F    F          D#  D#  D#        G#  G#  A#  C    C  C
e:--------------------------------------------------------------------|
B:--------------------------------------------------------------------|
G:--10---10---X-X---8---8---8---X-X---13--13--15--17---17-17----------|
D:--10---10---X-X---8---8---8---X-X---13--13--15--17---17-17----------|
A:--8----8----X-X---6---6---6---X-X---11--11--13--17---15-15----------|
E:--------------------------------------------------------------------|
   It       wasn't       easy


    F    F          D#  D#  D#        G#  G#  A#  C    C  C
e:--------------------------------------------------------------------|
B:--------------------------------------------------------------------|
G:--10---10---X-X---8---8---8---X-X---13--13--15--17---17-17----------|
D:--10---10---X-X---8---8---8---X-X---13--13--15--17---17-17----------|
A:--8----8----X-X---6---6---6---X-X---11--11--13--17---15-15----------|
E:--------------------------------------------------------------------|
  But    nothing  is ,  no


~Heavy Distortion~
    F    F          D#  D#  D#        G#  G#  A#  C    C  C
e:--------------------------------------------------------------------|
B:--------------------------------------------------------------------|
G:--10---10---X-X---8---8---8---X-X---13--13--15--17---17-17----------|
D:--10---10---X-X---8---8---8---X-X---13--13--15--17---17-17----------|
A:--8----8----X-X---6---6---6---X-X---11--11--13--17---15-15----------|
E:--------------------------------------------------------------------|
 Whoo Hooo!!               WELL    I    FEEL   HEAVY   METAL!!


    F    F          D#  D#  D#        G#  G#  A#  C    C  C
e:--------------------------------------------------------------------|
B:--------------------------------------------------------------------|
G:--10---10---X-X---8---8---8---X-X---13--13--15--17---17-17----------|
D:--10---10---X-X---8---8---8---X-X---13--13--15--17---17-17----------|
A:--8----8----X-X---6---6---6---X-X---11--11--13--17---15-15----------|
E:--------------------------------------------------------------------|
 Whoo Hooo!!               AND  I'M    PINS   AND I'M NEEDLES!!



    F    F          D#  D#  D#        G#  G#  A#  C    C  C
e:--------------------------------------------------------------------|
B:--------------------------------------------------------------------|
G:--10---10---X-X---8---8---8---X-X---13--13--15--17---17-17----------|
D:--10---10---X-X---8---8---8---X-X---13--13--15--17---17-17----------|
A:--8----8----X-X---6---6---6---X-X---11--11--13--17---15-15----------|
E:--------------------------------------------------------------------|
 Whoo Hooo!!              Well   I LIE    and   I'm EASY


    F                           G#                  C#
e:--------------------------------------------------------------|
B:--------------------------------------------------------------|
G:--10--10--10--10--10--10--10--13--13--13--13--13--6--6--6--6--|
D:--10--10--10--10--10--10--10--13--13--13--13--13--6--6--6--4--|
A:--8---8---8---8---8---8---8---11--11--11--11--11--4--4--4--4--|
E:--------------------------------------------------------------|
   All   of   the   time  and  I'm  never sure why I need you


  C#
e:---------------------|
B:---------------------|
G:--6--6--6--6--6--6--6|
D:--4--6--6--6--4--4--4|
A:--4--4--4--4--4--4--4|
E:---------------------|
   Pleased to meet Ya!



    F    F          D#  D#  D#        G#  G#  A#  C    C  C
e:--------------------------------------------------------------------|
B:--------------------------------------------------------------------|
G:--10---10---X-X---8---8---8---X-X---13--13--15--17---17-17----------|2x
D:--10---10---X-X---8---8---8---X-X---13--13--15--17---17-17----------|
A:--8----8----X-X---6---6---6---X-X---11--11--13--17---15-15----------|
E:--------------------------------------------------------------------|



~Clean Tone~
    F    F          D#  D#  D#        G#  G#  A#  C    C  C
e:--------------------------------------------------------------------|
B:--------------------------------------------------------------------|
G:--10---10---X-X---8---8---8---X-X---13--13--15--17---17-17----------|
D:--10---10---X-X---8---8---8---X-X---13--13--15--17---17-17----------|
A:--8----8----X-X---6---6---6---X-X---11--11--13--17---15-15----------|
E:--------------------------------------------------------------------|
    I   got   my  head  done


    F    F          D#  D#  D#        G#  G#  A#  C    C  C
e:--------------------------------------------------------------------|
B:--------------------------------------------------------------------|
G:--10---10---X-X---8---8---8---X-X---13--13--15--17---17-17----------|
D:--10---10---X-X---8---8---8---X-X---13--13--15--17---17-17----------|
A:--8----8----X-X---6---6---6---X-X---11--11--13--17---15-15----------|
E:--------------------------------------------------------------------|
   When   I   was    Young


    F    F          D#  D#  D#        G#  G#  A#  C    C  C
e:--------------------------------------------------------------------|
B:--------------------------------------------------------------------|
G:--10---10---X-X---8---8---8---X-X---13--13--15--17---17-17----------|
D:--10---10---X-X---8---8---8---X-X---13--13--15--17---17-17----------|
A:--8----8----X-X---6---6---6---X-X---11--11--13--17---15-15----------|
E:--------------------------------------------------------------------|
   It's    not   my   problem


    F    F          D#  D#  D#        G#  G#  A#  C    C  C
e:--------------------------------------------------------------------|
B:--------------------------------------------------------------------|
G:--10---10---X-X---8---8---8---X-X---13--13--15--17---17-17----------|
D:--10---10---X-X---8---8---8---X-X---13--13--15--17---17-17----------|
A:--8----8----X-X---6---6---6---X-X---11--11--13--17---15-15----------|
E:--------------------------------------------------------------------|
   It's    not   my          problem



~Heavy Distortion~
    F    F          D#  D#  D#        G#  G#  A#  C    C  C
e:--------------------------------------------------------------------|
B:--------------------------------------------------------------------|
G:--10---10---X-X---8---8---8---X-X---13--13--15--17---17-17----------|
D:--10---10---X-X---8---8---8---X-X---13--13--15--17---17-17----------|
A:--8----8----X-X---6---6---6---X-X---11--11--13--17---15-15----------|
E:--------------------------------------------------------------------|
 Whoo Hooo!!               WELL    I    FEEL   HEAVY   METAL!!


    F    F          D#  D#  D#        G#  G#  A#  C    C  C
e:--------------------------------------------------------------------|
B:--------------------------------------------------------------------|
G:--10---10---X-X---8---8---8---X-X---13--13--15--17---17-17----------|
D:--10---10---X-X---8---8---8---X-X---13--13--15--17---17-17----------|
A:--8----8----X-X---6---6---6---X-X---11--11--13--17---15-15----------|
E:--------------------------------------------------------------------|
 Whoo Hooo!!               AND  I'M    PINS   AND I'M NEEDLES!!



    F    F          D#  D#  D#        G#  G#  A#  C    C  C
e:--------------------------------------------------------------------|
B:--------------------------------------------------------------------|
G:--10---10---X-X---8---8---8---X-X---13--13--15--17---17-17----------|
D:--10---10---X-X---8---8---8---X-X---13--13--15--17---17-17----------|
A:--8----8----X-X---6---6---6---X-X---11--11--13--17---15-15----------|
E:--------------------------------------------------------------------|
 Whoo Hooo!!              Well   I LIE    and   I'm EASY


    F                           G#                  C#
e:--------------------------------------------------------------|
B:--------------------------------------------------------------|
G:--10--10--10--10--10--10--10--13--13--13--13--13--6--6--6--6--|
D:--10--10--10--10--10--10--10--13--13--13--13--13--6--6--6--4--|
A:--8---8---8---8---8---8---8---11--11--11--11--11--4--4--4--4--|
E:--------------------------------------------------------------|
   All   of   the   time  and  I'm  never sure why I need you


  C#
e:---------------------|
B:---------------------|
G:--6--6--6--6--6--6--6|
D:--4--6--6--6--4--4--4|
A:--4--4--4--4--4--4--4|
E:---------------------|
   Pleased to meet Ya!



    F    F          D#  D#  D#        G#  G#  A#  C    C  C
e:--------------------------------------------------------------------|
B:--------------------------------------------------------------------|
G:--10---10---X-X---8---8---8---X-X---13--13--15--17---17-17----------|
D:--10---10---X-X---8---8---8---X-X---13--13--15--17---17-17----------|
A:--8----8----X-X---6---6---6---X-X---11--11--13--17---15-15----------|
E:--------------------------------------------------------------------|
							Yeah Yeah!



    F    F          D#  D#  D#        G#  G#  A#  C    C  C
e:--------------------------------------------------------------------|
B:--------------------------------------------------------------------|
G:--10---10---X-X---8---8---8---X-X---13--13--15--17---17-17----------|
D:--10---10---X-X---8---8---8---X-X---13--13--15--17---17-17----------|
A:--8----8----X-X---6---6---6---X-X---11--11--13--17---15-15----------|
E:--------------------------------------------------------------------|
							Yeah Yeah!


    F    F          D#  D#  D#        G#  G#  A#  C    C  C
e:--------------------------------------------------------------------|
B:--------------------------------------------------------------------|
G:--10---10---X-X---8---8---8---X-X---13--13--15--17---17-17----------|
D:--10---10---X-X---8---8---8---X-X---13--13--15--17---17-17----------|
A:--8----8----X-X---6---6---6---X-X---11--11--13--17---15-15----------|
E:--------------------------------------------------------------------|
							Yeah Yeah!


    F    F          D#  D#  D#        G#  G#  A#  C    C  C
e:--------------------------------------------------------------------|
B:--------------------------------------------------------------------|
G:--10---10---X-X---8---8---8---X-X---13--13--15--17---17-17----------|
D:--10---10---X-X---8---8---8---X-X---13--13--15--17---17-17----------|
A:--8----8----X-X---6---6---6---X-X---11--11--13--17---15-15----------|
E:--------------------------------------------------------------------|
							Ohhhhh   Yeah

Copyright 1997 by Blur


		   
AcordesyTabs.com © 2008 Acordes y Tablaturas para guitarra. Tabs and Chords for guitar. Aviso Legal - Contacto
El uso de este sitio está sujeto a la aceptación de los términos y condiciones (32 usuarios online)