tablaturas, partituras y acordes para guitarra
Busca por banda/artista:
 
y/o título de la canción:
A B C D E F G H I J K L M N O P Q R S T U V W X Y Z 0 1 2 3 4 5 6 7 8 9 / Top 100 tabs
Categorías
Usuarios
usuario:
Darse de alta
password:
Artistas más visitados
Publicidad
TOP acordes y tablaturas de Incubus


Drive
de Incubus
Puntúa este acorde/tab:      
(0.3/5)
Reportar este acorde/tab
  Añadir a tus favoritos
  Imprimir
BAND: Incubus
SONG: Drive
TABBED BY: Tim Dobson
----------------------------------------------------------------
Right then every one, the lack of Incubus on this site is a discrase.
So, being the nice guy I am, i am slowly throwing up the tabs from
S.C.I.E.N.C.E, and Make you'r self. Starting with the most incredible 
song, of corse, Drive. Let the force be with you and let playing this
song relax all tension. errrrr, ill shut up now, hears the tab!

Standard Tuning (EADGBE)

Intro

|------3--3-3-xx----0-0----0--0-0-xx----0--0-|
|------0--0-0-xx----3-3----0--0-0-xx----0--0-|
|------0--0-0-xx----0-0----0--0-0-xx----0--0-|
|------2--2-2-xx----2-2----2--2-2-xx----2--2-|
|----2-2--2-2-xx----2-2-3--3--3-3-xx-0-------|
|--0---0--0-0-xx-0--0-0----------------------|

Verse

|------3--3---xx----0------0--0---xx----0--0-|
|------0--0---xx----3------0--0---xx----0--0-|
|------0--0---xx----0------0--0---xx----0--0-|
|------2--2---xx----2------2--2---xx----2--2-|
|----2-2--2---xx----2---3--3--3---xx---------|
|------0--0---xx----0------------------------|
 Adlib on the rhythm of each chord

Pre-Chorus
|--0-/-/-/-/-/-/-/-/-/-/-/-/-/-/-/-/-/-/-/-/-/-/-/-/-/--|
|--0-/-/-/-/-/-/-/-/-/-/-/-/-/-/-/-/-/-/-/-/-/-/-/-/-/--|
|--0-/-/-/-/-/-/-/-/-/-/-/-/-/-/-/-/-/-/-/-/-/-/-/-/-/--|  / = repeat chord
|--2-/-/-/-/-/-/-/-/-/-/-/-/-/-/-/-/-/-/-/-/-/-/-/-/-/--|
|--3-/-/-/-/-/-/-/-/-/-/-/-/-/-/-/-/-/-/-/-/-/-/-/-/-/--|
|--0-/-/-/-/-/-/-/-/-/-/-/-/-/-/-/-/-/-/-/-/-/-/-/-/-/--|
|
|--0--0--0--0-0--0-0--0-0-0--0--0--0--0-0--0-0-0--0-0-0-|
|--0--0--0--0-0--0-0--0-0-0--3--3--3--3-3--2-0-0--2-0-0-|
|--0--0--0--0-0--0-0--0-0-0--0--0--0--0-0--0-0-0--0-0-0-|
|--2--2--2--2-2--2-2--2-2-2--2--2--2--2-2--2-2-2--2-2-2-|
|--3--3--3--3-3--3-3--3-3-3--3--3--3--3-3--3-3-3--3-3-3-|
|-------------------------------------------------------|

Chorus

|------3--3-3-xx----0-0----0--0-0-xx----0--0-|
|------0--0-0-xx----3-3----0--0-0-xx----0--0-|
|------0--0-0-xx----0-0----0--0-0-xx----0--0-|
|------2--2-2-xx----2-2----2--2-2-xx----2--2-|
|----2-2--2-2-xx----2-2-3--3--3-3-xx-0-------|
|--0---0--0-0-xx-0--0-0----------------------|
|
|--12--12--12--12--|
|----12--12--12----| 
|------------------| Repeat throughout the Chorus
|------------------|
|------------------|
|------------------|
HRM - - - - - - -

Solo

|--0-0-0-0-0/--7/--5/--3--------------------------------------5/7-7--7/5--5/10--
|---------------------------10/--3/--5--------5-----5---------------------------
|--------------------------------------7^7------7^----7^----8-------------------
|-------------------------------------------------------------------------------
|-------------------------------------------------------------------------------
|-------------------------------------------------------------------------------

|-------------5----5/3-------------|
|--3/5-----------------5/3---------|
|------7^7-----------------4/2-2/4-|
|----------------------------------|
|----------------------------------|
|----------------------------------|

Well, there he have, i hope you have enjoyed out time together, 
and don't forget to stay tuned for more incubus tab. If you are
a fan of Muse or Primus, i also have some of there tabs on this site.
Check them out!
Don't do any thing stupid now.
Spadey (Tim Dobson) CrashedTD@aol.com   (e-mail me if you have any requests)
		   
AcordesyTabs.com © 2008 Acordes y Tablaturas para guitarra. Tabs and Chords for guitar. Aviso Legal - Contacto
El uso de este sitio está sujeto a la aceptación de los términos y condiciones (26 usuarios online)