tablaturas, partituras y acordes para guitarra
Busca por banda/artista:
 
y/o título de la canción:
A B C D E F G H I J K L M N O P Q R S T U V W X Y Z 0 1 2 3 4 5 6 7 8 9 / Top 100 tabs
Categorías
Usuarios
usuario:
Darse de alta
password:
Artistas más visitados
Publicidad
TOP acordes y tablaturas de Incubus


Echo 2
de Incubus
Puntúa este acorde/tab:      
(0.3/5)
Reportar este acorde/tab
  Añadir a tus favoritos
  Imprimir
Band: Incubus
Song: Echo
Album: Morning View

Tabbed By: Christian Estrera (jujango@yahoo.com)
Date Submitted: 11.22.01 (Thanksgiving Day)

Tuning: Drop-D (D A D G B E) (Low to High)

Key:/ = slide up
     = slide down
    ~ = add a little vibrato
    ^ = bend 
        ()= optional

Intro & Chorus:

e:------------0---(let ring)--------------------------------(0)--(let ring)-----
B:-----------(0)--(let ring)---------------------------------0---(let ring)-----
G:---------2-------2/4---4/7----7/9---9/117---74---------4------4/7---74---4/
D:-----------------2/4---4/7--- 7/9-- 9/117---74-------4--------4/7---74---4/
A:------------------------------------------------------------------------------
D:-------0--(let ring)----------------------------------------------------------


Verse:

Fool around with arpeggiating these 2 chords. It sounds like Mike is just messin
these two chords, and using some distortion coupled with some reverb.

e:---------0---------0---------
B:---------0---------0---------
G:---------7---------4---------
D:---------7---------4---------
A:---------5---------2---------
D:---------0-------------------


Here is one way Mike improvises with these two chords:

Let each note of the arpeggiated chord ring

e:---------------0-------------------------------0--------------------------
B:-----------------0-------------------------------0------------------------
G:-------------5-----5-------------------------------4----------------------
D:-----------5---------5-------------------------------4--------------------(REP
A:--------------------------(52)-----------2----------------(2/5)----------
D:---------0----------------------------------------------------------------


Pre-chorus: 

e:---------------5------------5-----------------3------------3--------
B:---------------8------------8-----------------6------------6--------
G:---------------7------------7-----------------5------------5--------
D:------5-5-5-5------5-5-5-5-----------3-3-3-3------3-3-3-3-----------(REPEAT)
A:------5-5-5-5------5-5-5-5-----------3-3-3-3------3-3-3-3-----------
D:------5-5-5-5------5-5-5-5----(53)--3-3-3-3------3-3-3-3----(3/5)--


Solo:

e:----19--17--14--12--10------------------------------------10-12-10~------
B:------------------------12^-10-12~------------------10-12----------------
G:------------------------------------9-11-9~----9-11----------------------

e:----10-12-10-12-14~--------19-17-14-12^-10---------
B:-------------------------------------------10~-----



The Arpeggiated Ending Chord:

---0---------------
-----0-------------
-------2-----------
---------2---------
-----------0-------
-------------0-----


My 2 Cents:

The Pre-Chorus was rather hard to deciper, even though it's merely 2 chords. But
for the Pre-Chorus is pretty close. For the solo, you can vibrato and bend any n
still sound beautiful. For the arpeggiated ending chord, be sure to gradually st
the bridge to get THAT sound. Notes in parantheses sound great when played. Like
Incubus songs, use some phase, flange, chorus, distortion, etc. to your heart's 

This song resembled "Stellar" in some way. So I went on this assumption when I b
"Echo." I figured "Echo" out on acoustic guitar. If someone comes up with an aco
arrangement for "Echo," PLEASE post it.

Feel free to email me with questions, comments, and even criticisms.
		   
AcordesyTabs.com © 2008 Acordes y Tablaturas para guitarra. Tabs and Chords for guitar. Aviso Legal - Contacto
El uso de este sitio está sujeto a la aceptación de los términos y condiciones (30 usuarios online)