tablaturas, partituras y acordes para guitarra
Busca por banda/artista:
 
y/o título de la canción:
A B C D E F G H I J K L M N O P Q R S T U V W X Y Z 0 1 2 3 4 5 6 7 8 9 / Top 100 tabs
Categorías
Usuarios
usuario:
Darse de alta
password:
Artistas más visitados
Publicidad
TOP acordes y tablaturas de Incubus


Estás en: Inicio > Letra I > Acordes y tablaturas de Incubus > I Miss You
I Miss You
de Incubus
Puntúa este acorde/tab:      
(0.4/5)
Reportar este acorde/tab
  Añadir a tus favoritos
  Imprimir
Song: I Miss You
Band: Incubus
Album: Make Yourself
Tabbed by: Wendell Segundo
Tuning: Drop D (DADGBE)

* - harmonics

Intro:

|---------------------------------------|
|---------------------------------------|
|-----------------------------------7*--|
|--------0-----0-----------0-----0------|
|-----4-----4-----4-----4-----4---------|
|--0-----------------5------------------|

Chorus:
    
|------------------------------------|
|------------------------------------|
|--4-4-4---------------7-7-----------| (2x)
|--4-4-4--5-5-5--0-0-0-7-7-----------|
|--2-2-2--5-5-5--0-0-0-5-5-----------|
|---------5-5-5--0-0-0---------------|

|--------------------|
|--------------------|
|--------------------|
|---5-5-5-5-5-5-5----|
|---5-5-5-5-5-5-5----|
|---5-5-5-5-5-5-5----|
     I miss you...


This is one of my favorite from Incubus. I hope you'll like it.
If you have any comments or suggestions, just email me at Wendell_Segundo@yahoo.
Corpus Christi School rocks! 
		   
AcordesyTabs.com © 2008 Acordes y Tablaturas para guitarra. Tabs and Chords for guitar. Aviso Legal - Contacto
El uso de este sitio está sujeto a la aceptación de los términos y condiciones (23 usuarios online)