tablaturas, partituras y acordes para guitarra
Busca por banda/artista:
 
y/o título de la canción:
A B C D E F G H I J K L M N O P Q R S T U V W X Y Z 0 1 2 3 4 5 6 7 8 9 / Top 100 tabs
Categorías
Usuarios
usuario:
Darse de alta
password:
Artistas más visitados
Publicidad
TOP acordes y tablaturas de Jaguares


Estás en: Inicio > Letra J > Acordes y tablaturas de Jaguares > No dejes que
No dejes que
de Jaguares
Puntúa este acorde/tab:      
(0.8/5)
Reportar este acorde/tab
  Añadir a tus favoritos
  Imprimir
esta rolota es una de las mejores que he sacado y 
espero sacar mas, chequen y veran que suena igualito. 
INTRO:
   D       G        A    Asus
--2-2-2---3-3-3---0-0-0---------------- se repite 
--3--3-3--3--3-3--2--2-2--2--2--0------
--2-----2-0-----0-2-----2--2--2--------    dos
--0-------0-------2------4--2--0-0-----
--0-------2-------0--------------------   veces
--0-------3-------0--------------------

Aqui comienza a cantar.

  D       G       A      Asus
  Cuando atravez del vaso
--2-2-2---3-3-3---0-0-0-----------------
--3--3-3--3--3-3--2--2-2--2--2--0-------
--2-----2-0-----0-2-----2--2--2---------
--0-------0-------2------4--2--0-0------
--0-------2-------0---------------------
--0-------3-------0---------------------
  D       G       A     Asus
  veo atravez del tiempo
--2-2-2---3-3-3---0-0-0-----------------
--3--3-3--3--3-3--2--2-2--2--2--0-------
--2-----2-0-----0-2-----2--2--2---------
--0-------0-------2------4--2--0-0------
--0-------2-------0---------------------
--0-------3-------0---------------------

f#m       G            A      Asus
Donde los sentidos se dislocan
--2-2-2---3-3-3---0-0-0-----------------
--2--2-2--3--3-3--2--2-2--2--2--0-------
--2-----2-0-----0-2-----2--2--2---------
--4-------0-------2------4--2--0-0------
--4-------2-------0---------------------
--2-------3-------0---------------------

f#m       G            A      Asus
Donde los temores se evaporan
--2-2-2---3-3-3---0-0-0-----------------
--2--2-2--3--3-3--2--2-2--2--2--0-------
--2-----2-0-----0-2-----2--2--2---------
--4-------0-------2------4--2--0-0------
--4-------2-------0---------------------
--2-------3-------0---------------------

D           G         A      Asus
Y aprovecho para desdoblarme
D       G       A    Asus
para salir del vaso
f#m       G              A     Asus
con las paredes sudo tu rastro
f#m       G              A     Asus
con la memoria busco tu rostro.

 F       C       G       G
 Y no se     por que
-1-1-1---0-0-0---3-3-3---3-3-3------------
-1--1-1--1--1-1--3--3-3--3--3-3-----------
-2-----2-0-----0-0-----0-0-----0----------
-3-------2-------0-------0----------------
-3-------3-------2-------2----------------
-1-------3-------3-------3----------------

 F          C         G
 no me importa saber por que
-1-1-1---0-0-0---3-3-3---3-3-3------------
-1--1-1--1--1-1--3--3-3--3--3-3-----------
-2-----2-0-----0-0-----0-0-----0----------
-3-------2-------0-------0----------------
-3-------3-------2-------2----------------
-1-------3-------3-------3----------------


G             Pausa
No dejees que
             Am
nos coma el diablo amor
             Bm
que se trage tu calor
           C        
que erupte mi dolor


      G             
No dejees que
             Am
nos coma el diablo amor
             Bm
que se trage tu calor
           C
que erupte mi dolor


COMIIENZA DE NUEVO EL ARPEJEO.

D              G       A     Asus
Cuando veo atravez del humo
D       G       A      Asus
veo atravez del tiempo
f#m        G                   A     Asus
entre los mundos nos haremos viejos
f#m         G                A       Asus
donde algun dia estaremos tranquilos

 
Y no se por que
no me importa saber por que

G             Pausa
No dejees que
             Am
nos coma el diablo amor
             Bm
que se trage tu calor
           C        
que erupte mi dolor


      G             
No dejees que
             Am
nos coma el diablo amor
             Bm
que se trage tu calor
           C
que erupte mi dolor

      G
No dejeeees que
             Am
Nos coma el diaaabloaaamooor
Bm       C
Haaaaaaa haaaaaa
G              Am
haaaoaaaaAAAA  AAAAAA
Bm       G     Am   Bm
huohuoa  huo huo


espero les alla gustado por el momento es todo luego nos estaremos escribiendo BYE.
		   
AcordesyTabs.com © 2008 Acordes y Tablaturas para guitarra. Tabs and Chords for guitar. Aviso Legal - Contacto
El uso de este sitio está sujeto a la aceptación de los términos y condiciones (23 usuarios online)