tablaturas, partituras y acordes para guitarra
Busca por banda/artista:
 
y/o título de la canción:
A B C D E F G H I J K L M N O P Q R S T U V W X Y Z 0 1 2 3 4 5 6 7 8 9 / Top 100 tabs
Categorías
Usuarios
usuario:
Darse de alta
password:
Artistas más visitados
Publicidad
TOP acordes y tablaturas de Obus


Estás en: Inicio > Letra O > Acordes y tablaturas de Obus > Te visitara la muerte
Te visitara la muerte
de Obus
Puntúa este acorde/tab:      
(0.8/5)
Reportar este acorde/tab
  Añadir a tus favoritos
  Imprimir
TE VISITARA LA MUERTE 

POR   ---OBUS---

INTRO ( 4VECES)

e-------------------------------------------------------------------------I
B-------------------------------------------------------------------------I
G--------------------------5-------7------------------------------------I
D----7------9--/-/----3-------5---------7--------9------(---7-)----I
A--5------7---/--/---------------------5-------7----------(5----)---I
E-----------------------------------------------------------------------I

EN LA ULTIMA VEZ DEL INTRO USA LAS MISMAS ESCALAS
PERO REEMPLAZA LA ULTIMA DE  9-7  POR LA DEL PARENTESIS

AHORA UNA DIFERENCIA ENTRE   SOL-5   Y   SOL-5-1ERA:

       SOL-5                                SOL-5-1ERA
e----------------                        e------------
B---------------                         B------------
G---------------                         G------5------
D-------5--------                        D---3---------
A-------5--------                        A------------
E---3------------                        E------------
ENTONCES CUANDO VEAS EN ALGUNA DE LAS NOTAS  LA ABREVIACION
 DE -1,  YA SABES CUAL ES LA DIFERENCIA


VERSO 1

RE             SOL-1   RE      SOL-1    
EL VIENTO CON FUERZA GEMÍA Y LLORABA
ARRASTRABA SU FIGURA
LLAMÓ A MI PUERTA VESTIDA DE NEGRO EN
UNA NOCHE SIN LUNA

DO       LA                 
ERA LA MUERTE,
SI            SOL-1 
ELLA ME VISITÓ

DO       LA
Y SIN PALABRAS,
SI         
ME CONDENÓ
	
	CORO
USAR EL INTRO

TE VISITARÁ LA MUERTE
TE VISITARÁ LA MUERTE
TE VISITARÁ LA MUERTE
LA MUERTE


VERSO 2
USA LAS MISMAS NOTAS DEL PRIMER VERSO
SOLO ESCUCHA LOS CAMBIOS EN LA LETRA Y LISTO

COMIÓ EN MI MESA,DURMIÓ EN MI CAMA
SE ADUEÑÓ DE MI ALMA
FRÍA COMO EL HIELO MIS LABIOS BESÓ,
SU ASTUCIA ME ENGAÑÓ

ASI MISMO USA LOS ACORDES DEL
PRIMER PRE-CORO

ERA LA MUERTE,
ELLA ME VISITÓ
Y SIN PALABRAS,
ME CONDENÓ

	CORO
AQUI USA EL INTRO COMPLETO DENUEVO
HASTA EL ULTIMO EN DONDE PONES LA NOTA 
INDICADA ABAJO

TE VISITARÁ LA MUERTE
TE VISITARÁ LA MUERTE
TE VISITARÁ LA MUERTE
TE VISITARÁ LA MUERTE

TE VISITARÁ LA MUERTE
TE VISITARÁ LA MUERTE
TE VISITARÁ LA MUERTE                     
                      SI 
TE VISITARÁ LA..MUERTE   GUAYEAH

SOLO

LO DIVIDI EN TES PARTES ESCUCHA BIEN Y NOTARAS LOS CAMBIOS 
PUEDES DARLE ALGUNOS ARREGLOS EXTRA SI DESEA IGUAL ESTA ES LA 
BASE Y LA QUE MAS DENOTA EN LA CANCION.
e-15-16-15-16-15-17-13--14-13-----------------------------------------------------------------------------------
B---------------------------------------13--15--13--15--13--15--13--15--12--13--12------------------------------
G-----------------------------------------------------------------------------------------------15--------------


e--------------------------------------------------------
B-------------------------------------14--13--------------------------------------------------------14---------14-15-14-----
G-14-16--14--16-14-16-14-16--13-------------14--13--14-15-14-15--12---------17----------17-17-----------15-17---------------
D------------------------------------------------------------------------------16-17-14-------------------------------------


e--------------------------------------------------------------------------------------------------------
B-14-15-14-15-14-15-----------------------14--------14--15--14-------------------------------------------
G-------------------------14-15--17-----17-------17-17---------------15--17--17-18-17-18-17-18-17-18--19----AAAAHHH


TE VISITARÁ LA MUERTE
TE VISITARÁ LA MUERTE
TE VISITARÁ LA MUERTE
TE VISITARÁ LA MUERTE

VERSO 3 
USA LAS MISMAS NOTAS DE LOS 2 VERSOS 
ANTERIORES.

MI CUERPO TEMBLABA, MI FRENTE SUDABA,
COMO SI ME TORTURARAN
UN GRITO EN LA NOCHE, LA LUZ SE ENCENDIÓ
LA PESADILLA TERMINÓ

PRE-CORO
USA LAS MISMAS NOTAS DEL PRECORO ANTERIOR 

TODO FUE UN SUEÑO DE CIENCIA-FICCIÓN
Y POR SI ACASO VIVO COMO DIOS

		CORO
FINALMENTE TERMINA USANDO EN INTRO.

TE VISITARÁ LA MUERTE
TE VISITARÁ LA MUERTE
TE VISITARÁ LA MUERTE
TE VISITARÁ LA MUERTE
...
FIN.
		   
AcordesyTabs.com © 2008 Acordes y Tablaturas para guitarra. Tabs and Chords for guitar. Aviso Legal - Contacto
El uso de este sitio está sujeto a la aceptación de los términos y condiciones (97 usuarios online)