tablaturas, partituras y acordes para guitarra
Busca por banda/artista:
 
y/o título de la canción:
A B C D E F G H I J K L M N O P Q R S T U V W X Y Z 0 1 2 3 4 5 6 7 8 9 / Top 100 tabs
Categorías
Usuarios
usuario:
Darse de alta
password:
Artistas más visitados
Publicidad
TOP acordes y tablaturas de Pastilla


Estás en: Inicio > Letra P > Acordes y tablaturas de Pastilla > No estoy muerto
No estoy muerto
de Pastilla
Puntúa este acorde/tab:      
(0.9/5)
Reportar este acorde/tab
  Añadir a tus favoritos
  Imprimir
Pastilla
No Estoy Muerto

Intro:

    C     F   C      F
e|---------------------------|
b|---------------------------|
g|--5--55-10--5—-55--1010----|  (x2)
d|--5--55-10--5--55--1010----|
a|--3--33-8---3--33--8-8-----|
e|---------------------------|
   -la segunda vez ya no se hace dos veces el último F-

     C     Am    Em
g|--------—------------------|
d|--------------—------------|
a|---------------7-7---7-7---|
e|---8-8---5-5---------------|
   -así entra el bajo-

e|---------|
b|---------|
g|---------|  (x2)
d|---------|
a|---7p8---|
e|---------|
   -esto suena mientras va lo del bajo-


          -fig.1-
     C     Am    Em
e|-----------------------|
b|-----------------------|
g|---555------—--99999---|
d|---555---777---99999---|
a|---333---777---77777---|
e|---------555-----------|


          -fig.3-
e|------------------------------|
b|------------------------------|
g|--------—-------1212--(10-7)--|
d|--999-10-9-7-99-1212--(10-7)--|
a|--777-8--7-5-77-1010--(8--9)--|
e|------------------------------|
   -lo tienen que tocar con ritmo sino nunca va a sonar-
   -lo del paréntesis se toca en la última vuelta-


(fig.1)
en la noche y en lo obscuro
(fig.1)
tengo miedo, tengo miedo
(fig.1)
y tus manos me torturan
(fig.1)
quedo ciego en tu fuego
(fig.1)   -sin distorsión-
y tus ojos que me lloran
(fig.1)
más me cobran, más me cobran


          -fig.2-
    D      C       Em
e|-----------------------|
b|-----------------------|
g|--7-7-7--5-5-5—--9999--|
d|--7-7-7--5-5-5---9999--|
a|--5-5-5--3-3-3---7777--|
e|-----------------------|


(fig.2)          (fig.2)
no estoy muerto, no me importa
(fig.2)          (fig.2)
si revientan los gusanos a mi cuerpo


     C     Am    Em
g|--------—------------------|
d|--------------—------------|
a|---------------7-7---7-7---| (x4)
e|---8-8---5-5---------------|
   -después de esto, entra la fig.1 rápido como en el intro-
   -también entra la fig.3 después de dos vueltas de fig.1-


(fig.1)
cada palabra es un gran Sol
(fig.1)
que derretirá mi alma, se callará toda mi luz
(fig.1)
y tus manos ya no me tocaran
(fig.1)
ya no quemarás mi vientre
(fig.1)
llagas en tus manos
(fig.1)
luces en tus pies


(fig.2)          (fig.2)
no estoy muerto, no me importa
(fig.2)          (fig.2)
si revientan los gusanos a mi cuerpo


(fig.1) (x4)


e|-----------------------|
b|-----------------------|
g|--5-5-5--7-7-7--9-9-9--|  (x3)
d|--5-5-5--7-7-7--9-9-9--|
a|--3-3-3--5-5-5--7-7-7--|
e|-----------------------|
   -después de mucho ruido sobre Do va esto-


e|--x----x----x--|
b|--x----x----x--|
g|--5----7----9--|
d|--5----7----9--|
a|--3----5----7--|
e|--0----0----0--|
   -cuando eric lo marca entra esto-


e|---------|
b|---------|
g|---------|
d|---------|
a|---7p8---|
e|---------|
   -el adorno se queda sonando un rato-



un saludo para los pastillos
		   
AcordesyTabs.com © 2008 Acordes y Tablaturas para guitarra. Tabs and Chords for guitar. Aviso Legal - Contacto
El uso de este sitio está sujeto a la aceptación de los términos y condiciones (29 usuarios online)