tablaturas, partituras y acordes para guitarra
Busca por banda/artista:
 
y/o título de la canción:
A B C D E F G H I J K L M N O P Q R S T U V W X Y Z 0 1 2 3 4 5 6 7 8 9 / Top 100 tabs
Categorías
Usuarios
usuario:
Darse de alta
password:
Artistas más visitados
Publicidad
TOP acordes y tablaturas de Incubus


Estás en: Inicio > Letra I > Acordes y tablaturas de Incubus > Mexico Intro
Mexico Intro
de Incubus
Puntúa este acorde/tab:      
(0.4/5)
Reportar este acorde/tab
  Añadir a tus favoritos
  Imprimir
Song:   Mexico
Artist: Incubus
Album:  Morning View
By:  David Stanard
Date:  02/15/02

"This is the real thing; I promise!"

INTRO & VERSE

E--------0-------0-------0-------0----------------------------0-------0--|
B--------0-------0-------0-------0----------------------------x-------x--|
G--------------------------------------------7-------7--------2-------2--|
D-----9-------9-------5-------5--------------0-------0-------------------|
A--7-------7-------3-------3--------------8-------8--------3-------3-----|
E-----------------------------------0--6-------6--------1-------1--------|


E--------0-------0-------0-------0----------------------------0-------0--|
B--------8-------8-------0-------0----------------------------x-------x--|
G--------------------------------------------7-------7--------2-------2--|
D-----9-------9-------5-------5--------------0-------0-------------------|
A--7-------7-------3-------3--------------8-------8--------3-------3-----|
E-----------------------------------0--6-------6--------1-------1--------|
		   
AcordesyTabs.com © 2008 Acordes y Tablaturas para guitarra. Tabs and Chords for guitar. Aviso Legal - Contacto
El uso de este sitio está sujeto a la aceptación de los términos y condiciones (76 usuarios online)