tablaturas, partituras y acordes para guitarra
Busca por banda/artista:
 
y/o título de la canción:
A B C D E F G H I J K L M N O P Q R S T U V W X Y Z 0 1 2 3 4 5 6 7 8 9 / Top 100 tabs
Categorías
Usuarios
usuario:
Darse de alta
password:
Artistas más visitados
Publicidad
TOP acordes y tablaturas de Incubus


Mexico
de Incubus
Puntúa este acorde/tab:      
(0.3/5)
Reportar este acorde/tab
  Añadir a tus favoritos
  Imprimir
Band: Incubus
Song: Mexico
Album: Morning View
Tabbed By: Mr Wok


Verse

     
e|------------------------------------------------------------------------------
b|------------------------------------------------------------------------------
g|------9-----9------5------5---------------------------------------------------
d|----9-----9------5------5-----------8------8------3------3--------------------
a|--7-----7------3------3-----------8------8------3------3----------------------
E|-----------------------------5--6------6------1------1------------------------

Chorus

e|------------------------------------------------------------------------------
b|------------------------------------------------------------------------------
g|-------------------------7-----7----------------------------7-7-7--5-5-5------
d|--2-2-2--5-5-5-5-5-----7-----7----7-7-7---2-2-2--5-5-5-5-5--7-7-7--5-5-5------
a|--2-2-2--5-5-5-5-5---5-----5------7-7-7---2-2-2--5-5-5-5-5--5-5-5--3-3-3------
E|--0-0-0--3-3-3-3-3----------------5-5-5---0-0-0--3-3-3-3-3--------------------


Interlude
e|------------------------------------------------------------------------------
b|------------------------------------------------------------------------------
g|-------------5-5-5-5-5--4-4-4-4-4-5-5-5-5-5-----------------------------------
d|---5-5-5-5-5-5-5-5-5-5--4-4-4-4-4-5-5-5-5-5-------7-7-7-7-7-7-7--3-3-3-3-3-3-3
a|---5-5-5-5-5-3-3-3-3-3--2-2-2-2-2-3-3-3-3-3--x3---7-7-7-7-7-7-7--3-3-3-3-3-3-3
E|---3-3-3-3-3--------------------------------------5-5-5-5-5-5-5--1-1-1-1-1-1-1


Verse x 6
Chorus x 2
Verse x 6 
Chorus x 2
Interlude x 1
Chorus x 2
Verse x 4

Enjoy!








		   
AcordesyTabs.com © 2008 Acordes y Tablaturas para guitarra. Tabs and Chords for guitar. Aviso Legal - Contacto
El uso de este sitio está sujeto a la aceptación de los términos y condiciones (27 usuarios online)