tablaturas, partituras y acordes para guitarra
Busca por banda/artista:
 
y/o título de la canción:
A B C D E F G H I J K L M N O P Q R S T U V W X Y Z 0 1 2 3 4 5 6 7 8 9 / Top 100 tabs
Categorías
Usuarios
usuario:
Darse de alta
password:
Artistas más visitados
Publicidad
TOP acordes y tablaturas de Incubus


Estás en: Inicio > Letra I > Acordes y tablaturas de Incubus > Nice To Know You
Nice To Know You
de Incubus
Puntúa este acorde/tab:      
(0.6/5)
Reportar este acorde/tab
  Añadir a tus favoritos
  Imprimir
Incubus
-Nice to Know You
 
Tuning : D A D G B E 

 |       |       |       |        
|--------------------------------|
|--------------------------------|
|--------------------------------|
|2---4-4-----0-0---0-0---2---4-4-|
|2---4-4-----0-0---0-0---2---4-4-|
|2---4-4-----0-0---0-0---2---4-4-|

 |       |       |       |        
|------------------------------------------------|
|------------------------------------------------|
|------------------------------------------------|
|2---4-4-----0-0---0-0---2---4-4-4--7-7-7|
|2---4-4-----0-0---0-0---2---4-4-4--7-7-7|
|2---4-4-----0-0---0-0---2---4-4-4--7-7-7|

 
Chords during slow part, strum each a couple of times slowly until the next chor
 |       |       |       |        
|0-------------------------------|
|0-------------------------------|
|2-------------------------------|
|2-------------------------------|
|0-------------------------------|
|--------------------------------|

 |       |       |       |        
|0-------------------------------|
|0-------------------------------|
|1-------------------------------|
|2-------------------------------|
|0-------------------------------|
|--------------------------------|

 |       |       |       |        
|0---------------------0---------|
|0---------------------0---------|
|4---------------------3---------|
|5---------------------4---------|
|5---------------------4---------|
|--------------------------------|


Tabbed by: Jason Bogart
		   
AcordesyTabs.com © 2008 Acordes y Tablaturas para guitarra. Tabs and Chords for guitar. Aviso Legal - Contacto
El uso de este sitio está sujeto a la aceptación de los términos y condiciones (27 usuarios online)