tablaturas, partituras y acordes para guitarra
Busca por banda/artista:
 
y/o título de la canción:
A B C D E F G H I J K L M N O P Q R S T U V W X Y Z 0 1 2 3 4 5 6 7 8 9 / Top 100 tabs
Categorías
Usuarios
usuario:
Darse de alta
password:
Artistas más visitados
Publicidad
TOP acordes y tablaturas de Ricardo Arjona


Estás en: Inicio > Letra R > Acordes y tablaturas de Ricardo Arjona > Tiempo en una Botella
Tiempo en una Botella
de Ricardo Arjona
Puntúa este acorde/tab:      
(0.6/5)
Reportar este acorde/tab
  Añadir a tus favoritos
  Imprimir
aqui entrego otra version de esta cancion, si bien es cierto que 
la anterior era buen, yo quise agregar la version original, del 
desaparecido Jim Croce. 
no se el nombre de todas las notas, pero yo creo que suenan bien
comentarios, dudas, escribeme a kickingthebaby@yahoo.com   
Introduccion.


-5---5---5--3---3---3----3--0--1--3--1--0----------3--2--0----
--3---2-----------------------------------2--3--5--5--3--2----
----------5---4---3---3---------------------------------------
--------------------------------------------------------------
--------------------------------------------------------------
--------------------------------------------------------------


  

   rem           rem*        rem7     sol#
  Si pudiera detener el tiempo
     sol*                          puente#1
  y echarle un vistazo al pasado
  rem       rem7
si el ayer fuera el hoy
   sol#        sol~     rem#
  o el hoy el ayer
  sol~                puente#2
si pudiera volverte a ver



  Si pudiera una botella guardar tiempos
 
  y acudir a ellos en la triteza buscaria cada uno 
      
  de los dias de ayer
    
  procurando volverte a ver


        re                re*
  Y es que estoy aqui
   si#              si#7
  buscando el ayer
   sol                   puente#3
  lo que no encuentro hoy
     
  el tiempo en una botella
      
  para acudir a ella cuando quiera


     
  Buscaria en la botella tu sonrisa
       
  y tu forma de andar por el mundo  
  Si pudiera una botella
        
  guardar Tiempos de ayer
     
  buscaria volverte a ver



  Y es que estoy aqui
   
  buscando el ayer
    
  lo que no encuentro hoy
    
  el tiempo en una botella
       
  para acudir a ella cuando quiera

       rem                rem*                      rem7
1 |-1-|---|---|        |-1-|---|---|---|          |-1-|---|---|
2 |---|---|-3-|        |---|---|-3-|---|          |---|---|-4-|
3 |---|-2-|---|        |---|-2-|---|---|          |---|-2-|---|
4 |---|---|---|        |---|---|---|---|          |---|---|---|
5 |---|---|---|        |---|---|---|-4-|          |---|---|-3-|
6 |---|---|---|        |---|---|---|---|          |---|---|---|
                               
  sol#            sol*                    sol~
1  |---|---|---|    |---|---|---|         |---|---|---|
2  |---|---|-3-|    |---|---|-3-|         |---|---|-3-|
3  |---|---|---|    |---|---|---|         |---|---|---|
4  |---|-1-|---|    |-1-|---|---|         |---|---|---|
5  |---|---|---|    |---|---|---|         |---|---|-3-|


      rem#        re#             si#             si#7
1  |-1-|---|---|   |---|-1-|---|    |---|-1-|---|     |---|-1-|---|
2  |---|---|-3-|   |---|-1-|-2-|    |---|-1-|---|     |---|---|---|
3  |---|-2-|---|   |---|-1-|---|    |---|-1-|---|     |---|-2-|---|
4  |---|---|---|   |---|---|---|    |---|---|---|     |---|---|---|
5  |---|---|---|   |---|---|---|    |---|---|---|     |---|---|---|
6  |-5-|---|---|   |---|---|---|    |---|---|---|     |---|---|---|
        
         **                    re*                     ##
1  |---|---|---|---|        |---|-1-|---|---|         |---|---|---|
2  |---|---|-3-|---|        |---|-  |-3-|---|         |---|---|-3-|
3  |---|---|---|-4-|        |---|-2-|---|---|         |---|-2-|---|
4  |---|---|---|---|        |---|---|---|---|         |---|---|---|
5  |---|---|---|---|        |---|---|---|-4-|         |---|---|---|
6  |---|---|-1-|---|        |---|---|---|---|         |---|-1-|---|
 


    puente 1          |                             puente 2                
E--6-5-3-5-7-9-12-10-9---|--5--7--9--5~6--5--3--0---|-----------
H------------------------|------------     ---------   
G--7-6-3-6-7-9-12-10-9---|--6--7--9-------6--3--2---|-----------
D------------------------|--------------  ----------|-----------
A------------------------|--------------    ---------
E------------------------|--------------    --------|-----------
  

 |  puente 3
-|--2--3--5-- 
-|--0--2--4--



final
----    0------  -10------        -0-------- 10------       0--------10----------- 0--
-----    ---6-------- 10-------      -6---------10--------      6---------10--------6--
---------------7------------------------ -7--------------------        7-------------------7------
--0-----------------------------0---------------------     0--
--------------------------------------------------------------------
--------------------------------------------------------------------
		   
AcordesyTabs.com © 2008 Acordes y Tablaturas para guitarra. Tabs and Chords for guitar. Aviso Legal - Contacto
El uso de este sitio está sujeto a la aceptación de los términos y condiciones (56 usuarios online)