tablaturas, partituras y acordes para guitarra
Busca por banda/artista:
 
y/o título de la canción:
A B C D E F G H I J K L M N O P Q R S T U V W X Y Z 0 1 2 3 4 5 6 7 8 9 / Top 100 tabs
Categorías
Usuarios
usuario:
Darse de alta
password:
Artistas más visitados
Publicidad
TOP acordes y tablaturas de Peor Es Nada


Estás en: Inicio > Letra P > Acordes y tablaturas de Peor Es Nada > Tiempo para 2
Tiempo para 2
de Peor Es Nada
Puntúa este acorde/tab:      
(0.6/5)
Reportar este acorde/tab
  Añadir a tus favoritos
  Imprimir
EMPIZA DESPUES DE LA GUITARRA

G/-------------------------------------------
D/-------------------------------------------
A/--3--3-3-3-3-------------------------------
E/--------------1--1-1-1-1-1-1-1-5--5-5-5-5--

G----------------/
D----------------/
A----------------/ X2
E3--3-3-3-3-3-3-3/

G/-----------------------------------/
D/-----------------------------------/
A/3-3--------------------------------/
E/--------1-1------5-5------3-3------/

G/------------------------------
D/------------------------------
A/8-8-8-7-7-7----8-8-8-7-7-7----
E/------------8--------------8--

G-------------------------------/
D-------------------------------/
A3-3-3-3-3-3-3-3-3-3-3-3-3-3-3-3/ X2
E-------------------------------/

ESTA PARTE ES CON PALM MUTE
G/-------------------------------
D/-------------------------------
A/2-2-2-2-2-2-2-2-2-2-2-2-2-2----
E/-------------------------------

G-------------------------------
D-------------------------------
A-------------------------------
E5-5-5-5-5-5-5-5-5-5-5-5-5-5----

G----------------------------/
D----------------------------/
A----------------------------/
E3-3-3-3-3-3-3-3-3--3--3--3--/


LA ULTIMA VES SE TOKA UNA SOLA VES SOL
G/--------------------------------------------
D/--------------------------------------------
A/--------------------------------------------
E/5--5-5-5-5-5-5-3--3-3-3-3-3-3-1--1-1-1-1-1-1

G--------------/
D--------------/
A--------------/
E3--3-3-3-3-3-3/X4


G/------------------------------/
D/------------------------------/
A/------------------------------/
E/3--3-3-3-3-3-3-5-5-5-5-5-5-5-5/X2

G/----------------------------------------------
D/----------------------------------------------
A/8-8-8-8-8-8-8-8-7-7-7-7-7-7-7-7---------------
G/--------------------------------3--3-3-3-3-3-3

G-------------------------------
D-------------------------------
A----------------8-8-8-8-8-8-8-8
E5-5-5-5-5-5-5-5----------------

G-------------------------/
D-------------------------/
A10-10-10-10-10-10-10-10-3/
G-------------------------/

G/-------------------------------------------
D/-------------------------------------------
A/--3--3-3-3-3-------------------------------
E/--------------1--1-1-1-1-1-1-1-5--5-5-5-5--

G----------------/
D----------------/
A----------------/ X2
E3--3-3-3-3-3-3-3/

G/-----------------------------------------------
D/-----------------------------------------------
A/3-3-3-3-3-3-3-3--------------------------------
E/----------------1-1-1-1-1-1-1-1-3-3-3-3-3-3-3-3

G-----------------------------------------------//
D-----------------------------------------------//
A----------------8-8-8-7-7-7----8-8-8-7-7-7-5-3-//
E5-5-5-5-5-5-5-5------------8-------------------//

ESO ES TODO
UNA SALUDO A MIS AMIGOS SAN,CHINO,JUAN,TOYA,MIGUEL,YOMA
Y ALVARO
		   
AcordesyTabs.com © 2008 Acordes y Tablaturas para guitarra. Tabs and Chords for guitar. Aviso Legal - Contacto
El uso de este sitio está sujeto a la aceptación de los términos y condiciones (66 usuarios online)