tablaturas, partituras y acordes para guitarra
Busca por banda/artista:
 
y/o título de la canción:
A B C D E F G H I J K L M N O P Q R S T U V W X Y Z 0 1 2 3 4 5 6 7 8 9 / Top 100 tabs
Categorías
Usuarios
usuario:
Darse de alta
password:
Artistas más visitados
Publicidad
TOP acordes y tablaturas de Duncan Dhu


Estás en: Inicio > Letra D > Acordes y tablaturas de Duncan Dhu > Tiempo para recordar
Tiempo para recordar
de Duncan Dhu
Puntúa este acorde/tab:      
(0.3/5)
Reportar este acorde/tab
  Añadir a tus favoritos
  Imprimir
Esta es la primera rola que pongo en ATAME espero
seguir subiendo más rolas, esta es una canción de 
antaño de Duncan Dhu ahora si que para puros 
conocedores.

INTRO

|-3--4-4--|--------|---------|--------|
|---------|-2--3-3-|---------|--------|
|---------|--------|-1--2-2--|--------|
|---------|--------|---------|--0-----|
|---------|--------|---------|--------|
|---------|--------|---------|--------|

G                       B7
Cuando la luna tiñe de azul el mar
Em                G7         Dm7       G
cuando la noche abraza con su obscuridad
C         Cm6         G          E7
el viejo faro, se ilumina al girar
Am                     D7
es tiempo, para recordar

G                       B7
Todo el amor y toda la felicidad
Em                G7         Dm7       G
se fueron con el viento y ya no volveran
C         Cm6       G          E7
aquellos sueños que no puedo olvidar
Am         D7        G  Dm6 G
es tiempo para recordar

B7
Toma mi mano y......
Em
llevame a ese lugar (veras)
A7                D7
entre, las rocas, lo que el mar dejo

en la tormenta.

 G                       B7
Cuando la luna tiñe de azul el mar
Em                G7         Dm7       G
cuando la noche abraza con su obscuridad
C         Cm6         G          E7
el viejo faro, se ilumina al girar
Am          D7         G Dm6 G
es tiempo, para recordar


INTER

B7
|-------------------|-------------------|
|-------------------|----------- -------|
|---------4-7h8-7h8-|---------4-7h8-7h8-|
|-----4-7-----------|-----4-7-----------|
|---6---------------|---6---------------|
|-7-----------------|-7-----------------|

Em
|--------------------------|----------------------|
|-----7-8---10-8-----------|----------------------|
|-7h9-----9------9-7-9vib--|----------------------|
|--------------------------|-9-7----7-9-----------|
|--------------------------|-----10-----10-7----7-|
|--------------------------|-----------------10---|
A7
|--------------------|----------------------|
|--------------------|----------------------|
|--------------------|----------------------|
|-------------9-7----|-------------9-7------|
|------7-10-7-----10-|------7-10-7-----10---|
|-10-9---------------|-10-9-----------------|

D7                                         G
|--------------------------------------------|
|--------------------------------------------|
|---9-7------7-----9-7---9-7---9-7-----------|
|-9----9-7-9---7p9-----9-----9-----9-7-5-----|
|----------------------------------------7-5-|
|--------------------------------------------|


G                       B7
Todo el amor y toda la felicidad
Em                G7         Dm7       G
se fueron con el viento y ya no volveran
C         Cm6       G          E7
aquellos sueños que no puedo olvidar
Am         D7        G  F#M Em 
es tiempo para recordar
Am         D7        G  F#M Em 
es tiempo para recordar
Am         D7        G  Dm6 G 
es tiempo para recordar

FIN

ACORDES RAROS

 Dm6     Dm7
|-3-|   |-1-|
|-4-|   |-1-|
|-0-|   |-2-|
|-2-|   |-0-|
|-3-|   |-X-|
|-X-|   |-X-|
		   
AcordesyTabs.com © 2008 Acordes y Tablaturas para guitarra. Tabs and Chords for guitar. Aviso Legal - Contacto
El uso de este sitio está sujeto a la aceptación de los términos y condiciones (24 usuarios online)