tablaturas, partituras y acordes para guitarra
Busca por banda/artista:
 
y/o título de la canción:
A B C D E F G H I J K L M N O P Q R S T U V W X Y Z 0 1 2 3 4 5 6 7 8 9 / Top 100 tabs
Categorías
Usuarios
usuario:
Darse de alta
password:
Artistas más visitados
Publicidad
TOP acordes y tablaturas de Incubus


Estás en: Inicio > Letra I > Acordes y tablaturas de Incubus > Nowhere Fast Bridge
Nowhere Fast Bridge
de Incubus
Puntúa este acorde/tab:      
(0.3/5)
Reportar este acorde/tab
  Añadir a tus favoritos
  Imprimir
Incubus-Nowhere Fast Solo/Bridge
Make Yourself

Tuning : DADGBE
This is my first tab so yeah, dont kill me if its wrong

e -----------------------10--------9-------9------------------------------------
b -----------------7-------10------10--------------------5-----------------7----
g -------------------7--------11------11--------------------7----------------9--
d ------4--4/5-------7------------------------------7---------7-------9-------9-
a ----5--5-----------------------------------------5---5-------------7---7------
d --0--------------------------------------------5------------------7-----------

Repeat 
                                                                                
e ------------------------------------------------------------------------------
b ------------------------------------------------------------------------------
g ---b11-11--b14--14--11-11----9---6/7---7--6/7---7------------7--------------
d ---b11-11--b14--14--11-11----9---6/7---7--6/7---7----111---7---------------
a ---b9---9---b12--12---9--9-----7---4/5---5--4/5---5----111---5----------------
d -----------------------------------------------------------------111----------


% second ending 

e ------------------------------------------------------------------------------
b ------------------------------------------------------------------------------
g -------8-8-8------------------------------------------------------------------
d -------8-8-8----repeat till chorus--------------------------------------------
a -------6-6-6------------------------------------------------------------------
d ------------------------------------------------------------------------------

mike uses a boss digital reverb/delay , boss super phaser, hughes and kettner ro

any questions or comments email me at pj_hurley85@hotmail.com

		   
AcordesyTabs.com © 2008 Acordes y Tablaturas para guitarra. Tabs and Chords for guitar. Aviso Legal - Contacto
El uso de este sitio está sujeto a la aceptación de los términos y condiciones (29 usuarios online)