tablaturas, partituras y acordes para guitarra
Busca por banda/artista:
 
y/o título de la canción:
A B C D E F G H I J K L M N O P Q R S T U V W X Y Z 0 1 2 3 4 5 6 7 8 9 / Top 100 tabs
Categorías
Usuarios
usuario:
Darse de alta
password:
Artistas más visitados
Publicidad
TOP acordes y tablaturas de Barricada


Estás en: Inicio > Letra B > Acordes y tablaturas de Barricada > No hay tregua
No hay tregua
de Barricada
Puntúa este acorde/tab:      
(0.6/5)
Reportar este acorde/tab
  Añadir a tus favoritos
  Imprimir
+ (http://mades.kaos.es)                        +
+++++++++++++++++++++++++++++++++++++++++++++++++

E |-----------------------------------------------------------------------|
B |-----------------------------------------------------------------------|
G |--7-7-7-7-7-7-7-7--5---5---5---5----7-7-7-7-7-7-7-7--5---5---5---5-----|
D |--5-5-5-5-5-5-5-5--5-5-5-5-5-5-5-5--5-5-5-5-5-5-5-5--5-5-5-5-5-5-5-5---|
A |-----------------------------------------------------------------------|
E |-----------------------------------------------------------------------|

     G             G  C             C  D    D      D     
E |-----------------------------------------------------------------------|
B |-----------------------------------------------------------------------|
G |--7-7-7-7-7-7-7-7--5---5---5---5----7-7-7-7-7-7-7-7-7-7-7-7-7-7-7-7----|
D |--5-5-5-5-5-5-5-5--5-5-5-5-5-5-5-5--7-7-7-7-7-7-7-7-7-7-7-7-7-7-7-7----|
A |------------------------------------5-5-5-5-5-5-5-5-5-5-5-5-5-5-5-5----|
E |-----------------------------------------------------------------------|

     B             B  C                D D D D D D D D D D D D D D D D
E |-----------------------------------------------------------------------|
B |-----------------------------------------------------------------------|
G |--4-4-4-4-4-4-4-4--5-5-5-5-5-5-5-5--7-7-7-7-7-7-7-7-7-7-7-7-7-7-7-7----|
D |--4-4-4-4-4-4-4-4--5-5-5-5-5-5-5-5--7-7-7-7-7-7-7-7-7-7-7-7-7-7-7-7----|
A |--2-2-2-2-2-2-2-2--3-3-3-3-3-3-3-3--5-5-5-5-5-5-5-5-5-5-5-5-5-5-5-5----|
E |-----------------------------------------------------------------------|

C         D  B
Es el juego, del gato y el ratón

C           D     B
tus mejores años, clandestinidad

C               D  B
no es muy difícil, claudicar

C              D    B
esto empieza a ser, un laberinto

E E E G G C  D
dónde  está, la salida


* - Estribillo:
*    G          D    G             C
*    Estás asustado, tu vida va en ello
*
*    G                D            C
*    pero alguien debe tirar del gatillo



G              D        C  G|--7--7-------------------|
Tu infantil sueño de loco  D|--5--5--------5---5----5-|
                           A|---------5--7---7----7---|

G              D         C B|--6--6-5--5-6--6-5--6-5--|
no hay respuesta demencial G|--5--5-5--5-5--5-5--5-5--|
                           D|--5--5-5--5-5--5-5--5-5--|

G              D      C  G|--7--7-------------------|
este juego ha terminado  D|--5--5--------5---5----5-|
                         A|---------5--7---7----7---|

G         D         C
mucho antes de empezar


E |--------------------------------------------------------------------|
B |--------------------------------------------------------------------|
G |--7-7-7-7-7-7-7-7-7-7-7-7-7-7-7-5--7-7-7-7-7-7-7-7-7-7-7-7-7-7-7-5--|
D |--5-5-5-5-5-5-5-5-5-5-5-5-5-5-5-5--5-5-5-5-5-5-5-5-5-5-5-5-5-5-5-5--|
A |--------------------------------------------------------------------|
E |--------------------------------------------------------------------|
               2 veces

Anónimo luchador D|-------5--|
                 A|-3---5----|

nunca tendrán, las armas la razón

pero cuando se aprende, a llorar por algo

también se aprende, a defenderlo.

-Estribillo


                    Para dudas y sugerencias estoy en

                     - solera@abonados.cplus.es -

                Probad esto también: B B A A C#  C# B 
 
                        Barricada, los mejores.
		   
AcordesyTabs.com © 2008 Acordes y Tablaturas para guitarra. Tabs and Chords for guitar. Aviso Legal - Contacto
El uso de este sitio está sujeto a la aceptación de los términos y condiciones (33 usuarios online)