tablaturas, partituras y acordes para guitarra
Busca por banda/artista:
 
y/o título de la canción:
A B C D E F G H I J K L M N O P Q R S T U V W X Y Z 0 1 2 3 4 5 6 7 8 9 / Top 100 tabs
Categorías
Usuarios
usuario:
Darse de alta
password:
Artistas más visitados
Publicidad
TOP acordes y tablaturas de Incubus


Pardon Me
de Incubus
Puntúa este acorde/tab:      
(0.3/5)
Reportar este acorde/tab
  Añadir a tus favoritos
  Imprimir
100% correct if you say it aint your wrong!!!

Incubus
pardon me 
make yourself

ntro/ pre verse/ bridge


     (play  2x)--------------------------------------------------|

e--0-------------0--------------0-------------0--------------0------------------
B--0-------------0--------------0-------------0--------------0--------7------7--
G--4-------------4--------------4-------------4--------------6--------4------4--
D--2-------------2--------------2-------------2-----------------------6------6--
A--4-------------4--------------4-------------4------------------------------7--
E----------------5----------------------------5---------------------------------
   (note play the chord while volume knob on 1 then slowly 
    move it up then when ready to play next chord move it back
    to 1)


Chorus

           (play 2x)----------------------------------------|

e-4------------2-------0----------------------------------4----4---------------0
B-4------------2-------0----------------------------------4----4---------------0
G-6------------4-------2----------------------------------6----6---------------2
D-6-/-/-/-/----4-/-/---2-/-/-/-/-/-/-/---4-2-/-/----2-/-/-6----6-/-/-/-/-/-/---2
A-4------------2-------0-----------------4-2-----4--2-----4----4---------------0
E----------------------------------------2-0-----2--0---------------------------



		   
AcordesyTabs.com © 2008 Acordes y Tablaturas para guitarra. Tabs and Chords for guitar. Aviso Legal - Contacto
El uso de este sitio está sujeto a la aceptación de los términos y condiciones (14 usuarios online)