tablaturas, partituras y acordes para guitarra
Busca por banda/artista:
 
y/o título de la canción:
A B C D E F G H I J K L M N O P Q R S T U V W X Y Z 0 1 2 3 4 5 6 7 8 9 / Top 100 tabs
Categorías
Usuarios
usuario:
Darse de alta
password:
Artistas más visitados
Publicidad
TOP acordes y tablaturas de Incubus


Pistola
de Incubus
Puntúa este acorde/tab:      
(0.2/5)
Reportar este acorde/tab
  Añadir a tus favoritos
  Imprimir
Pistola by Incubus
A Crow Left of the Murder
Tabbed by Kage

Hey guys, this song kicks ass.  Now there are alot of weird guitar parts that I 

Verses

E-------------------------------------------------------------------------------
B-------------------------------------------------------------------------------
G---------------13-------13----------------13--------------13-------------------
D-------------------------------------------------------------------------------
A--0h11-------------------------------------------------------------------------
E-----------12----------12-----------10-10---------0-11-11----------------------

alright, this is riff one.  Mike plays this in the first part of the verse.  whe

E---------9--------9------9-----------------------------------------------------
B-----------------------------------------14--------14--------------------------
G-------------------------------------------------------------------------------
D-------------------------------------------------------------------------------
A-7h9-------9-------7--------7/12-------0-11------------------------------------
E-------------------------------------------------------------------------------

This is riff two.  Play it after riff one twice during each verse.  Be careful a

Chorus

This part is really easy, you guys will get it right away.

Chords- C chord barred (810109XX)
            A chord barred (5776XX)
            E chord (022100)
The rhythm that Mike uses here is a little bit quirky.  Try to strum really quic

Interlude

Ok guys, now for the fun part.  I hope this works for all of you.

E-x
B-x
G-3     This is the jazz type chord at the beginning of the interlude, he plays 
D-2
A-x
E-x

then go to this part (riff A).

E-    These are the exact notes.  Play this exact tablature twice.
B-
G-
D--------------------------------4-------------------------------------------4--
A-------------------------------------------------------------------------------
E-5h7-7-5-454-7-7---5h7-7-5-454----2-2-2-2/5-5h7-7-5-454-7-7---5h7-7-5-454----2-

Here is the weird soloing part.  I play it with a hard distortion, a fast echo, 

E-2/14-----11-----9-----7----5/7-7-----4-5-4--222222---------------------14h17p1
B------------------------------------------------------------------------17b19--
G-  This first part needs to be played with a really fast strumming motion.  Lis
D-   The second part is not the real way it is played, but it is an octave highe
A-   Keep bending the B string at the indicated frets, and keep doing the hammer
E-   This part is where you need the echo pedal.

Those are all of the parts.  I will map out the song structure for you.

Verse 1-riff 1, 8 times, riff 2 twice, riff 1 twice
Chorus
Verse 2- riff 1, 4 times, riff 2 twice, riff 1 twice
Chorus
Interlude- jazz chord, Riff A, Solo, back to jazz chord
Verse 3- riff 1, 8 times
Chorus

Well, there it is, one of the coolest songs on the new album.  Mike is just frig

		   
AcordesyTabs.com © 2008 Acordes y Tablaturas para guitarra. Tabs and Chords for guitar. Aviso Legal - Contacto
El uso de este sitio está sujeto a la aceptación de los términos y condiciones (57 usuarios online)