tablaturas, partituras y acordes para guitarra
Busca por banda/artista:
 
y/o título de la canción:
A B C D E F G H I J K L M N O P Q R S T U V W X Y Z 0 1 2 3 4 5 6 7 8 9 / Top 100 tabs
Categorías
Usuarios
usuario:
Darse de alta
password:
Artistas más visitados
Publicidad
TOP acordes y tablaturas de Incubus


Priceless
de Incubus
Puntúa este acorde/tab:      
(0.3/5)
Reportar este acorde/tab
  Añadir a tus favoritos
  Imprimir
priceless                                                           tab by max


chorus/pre verse

------------------------------------------------------------------------0-----|
------------------------------------------------------------------------------|
----------------2--------------------0----------------2--------------2-3-3-2--|
--1---4-1-4------5---1---4-1-4----2-4---1---4-1-4------5---1---4-1-4----------|
--0---3-0-3--3-4--4--0---3-0-3-3-4------0---3-0-3--3-4--4--0---3-0-3----------|
----2------------------2-----------------2-------------------2----------------| 

verse

----------------------------|
----------------------------|
----------------------------|
--1--4----1--4--------------|
--0--3----0--3--------------|
----------------3-4-5-4-3---|  (repeated)

chords for pre chorus

----------------------------|
----------------------------|
--9------------7------------|
--10-----------10-----------|
--8------------8------------|
----------------------------|

'primusy' bit

-------5--8--------------5---------|
-------5---8h10p8--------5---7h8p7-|
------5-----------------5----7-----|  repeat this until solo
-----5-----------------5-----------|
--5h7---------------5h7------------|
-----------------------------------|

*note: when playing the above, harmonics are occasionally used, so just lightly 
the 5th fret and strum downwards (i think)

'!'indicates to pick repeatedly

-----12-12/14-14/15-14-12-12--10-10h12--------------|
--!-----------------------------------10------------|
-12---------------------------------------14-12/11--|
----------------------------------------------------|
----------------------------------------------------|
----------------------------------------------------|

-----------------!---!---!---!----------------------|
------------15--15--13--12--10--8-10----------------|
-12p11h12p11----------------------------------------|
----------------------------------------------------|
----------------------------------------------------|
----------------------------------------------------|

really fast part (each bit is played several times)

--------------------------------|
-15p13------------17p13---------|
------14p12------------14p12----|
--------------------------------|
--------------------------------|
--------------------------------|

-------------------------------------------|
-------------------------------------------|
--19p17----------19p17---------------------|
-------19p17----------19p17----------------|
------------19-18----------18--15----------|
-------------------------------------------|

next part, slide down to lowest frets, starting with:

----------------------------------------------|
--16------------------------------------------|
----------------------------------------------|
----------------------------------------------|
----------------------------------------------|
----------------------------------------------|
(the above is more than likely wrong)

----------------------------------------------------------------|
----------------------------------------------------------------|
----------------------------------------------------------------|
------------5--4-4-4-2-2-2-7----------5--b-b-b--------4444444---|
--------3------------------7------0------4-4-4-2-2-2--4444444---|
--5-5-5---5----------------5--2-2---2-----------------2222222---|   
this part repeats
and then strum last chords rapidly on the last bar before going into the verse p
 
 
 
		   
AcordesyTabs.com © 2008 Acordes y Tablaturas para guitarra. Tabs and Chords for guitar. Aviso Legal - Contacto
El uso de este sitio está sujeto a la aceptación de los términos y condiciones (24 usuarios online)