tablaturas, partituras y acordes para guitarra
Busca por banda/artista:
 
y/o título de la canción:
A B C D E F G H I J K L M N O P Q R S T U V W X Y Z 0 1 2 3 4 5 6 7 8 9 / Top 100 tabs
Categorías
Usuarios
usuario:
Darse de alta
password:
Artistas más visitados
Publicidad
TOP acordes y tablaturas de Attaque 77


Estás en: Inicio > Letra A > Acordes y tablaturas de Attaque 77 > Titanes en el ring
Titanes en el ring
de Attaque 77
Puntúa este acorde/tab:      
(0.3/5)
Reportar este acorde/tab
  Añadir a tus favoritos
  Imprimir
*Intro: G D D# F G  G

   G           D
Titanes en el ring
         C      C#      D
hoy se vuelven a enfrentar
         C    D       G           E
con sus músculos de acero y el poder
        C           D
de su fuerza sin igual.

Titanes en el ring
compitiendo con ardor.
Cada uno con sus armas buscará
        C    D      G
la victoria y el honor.

         B
*  Triunfar y fracasar
   es parte de su vida aquí en el ring.
      D
   Y nunca olvidarán
   que lo mas importante es competir.

Titanes en el ring
hoy se vuelven a enfrentar
con sus músculos de acero y el poder
        C     D    (G D D# F G)**
de su fuerza sin igual.

*Solo (G D C C# D  C D G E C D G)

* Triunfar y fracasar...

Titanes en el ring
hoy se vuelven a enfrentar
con sus músculos de acero y el poder
        C     D     (G F x4)***  (G F)x2 G-G
de su fuerza sin igual.


---------------------------------------------------------------
Intro:
    G     D       D#  F   G       G
e ------------------6-5-8-----------15~---|
B --------7-----7-8-------8---------------|
G -----7---7~-----------------------------|
D ----------------------------------------|
A ----------------------------------------|
E ----------------------------------------|

- - - - - - - - - - - - - - - - - - - - - - - - - - - - - - - -
*:

e -----------------------------------------------------------|
B -----------------------------------------------------------|
G ------4----------5---4-----3-----------4---------------5-4-|
D -----------------------------------------------------------|
A -----------------------------------------------------------|
E -----------------------------------------------------------|
  Triunfar y fracasar    es parte de su vida aquí en el ring.

e ------------------------------------------------------------|
B ------------------------------------------------------------|
G ---7-----------8---7-------7--------------------------------|
D ---------------------------------------4-------------5--7---|
A ------------------------------------------------------------|
E ------------------------------------------------------------|
  Y nunca olvidarán     que lo mas importante es competir.

- - - - - - - - - - - - - - - - - - - - - - - - - - - - - - - -
(G D D# F G)**:

    G       D        D#    F     G      G
e ----------------------6--5--8-----------777----|
B ----------7-----7--8-----------8-----------88--|
G -------7---7~----------------------------------|
D -----------------------------------------------|
A -----------------------------------------------|
E -----------------------------------------------|

- - - - - - - - - - - - - - - - - - - - - - - - - - - - - - - -
*Solo (G D C C# D  C D G E C D G):

       G            D            C      C#         D
e -----------------------|-----------------------------------|
B -----8~-----8---8/10~--|--10-8-----------------------------|
G --7-------7---7--------|------10-9-9-8-6-4---4-4s8~-6-4s6--|
D -----------------------|-----------------------------------|
A -----------------------|-----------------------------------|
E -----------------------|-----------------------------------|

e ------------------------|---------------------|
B --4s5---5s7---4---------|----------------9~---|
G ---------------6-4-6-4--|------6-5------------|
D ------------------------|--6-6-----6----------|
A ------------------------|---------------------|
E ------------------------|---------------------|

- - - - - - - - - - - - - - - - - - - - - - - - - - - - - - - -
(G F x4)***

      G       F
e --------------------|
B --------------------|
G --5-5-6-5-3-3-5-3---| x4
D --------------------|
A --------------------|
E --------------------|

==================================
/ = Slide up
 = Slide down
s = Ligado
~ = Vibración
		   
AcordesyTabs.com © 2008 Acordes y Tablaturas para guitarra. Tabs and Chords for guitar. Aviso Legal - Contacto
El uso de este sitio está sujeto a la aceptación de los términos y condiciones (26 usuarios online)