tablaturas, partituras y acordes para guitarra
Busca por banda/artista:
 
y/o título de la canción:
A B C D E F G H I J K L M N O P Q R S T U V W X Y Z 0 1 2 3 4 5 6 7 8 9 / Top 100 tabs
Categorías
Usuarios
usuario:
Darse de alta
password:
Artistas más visitados
Publicidad
TOP acordes y tablaturas de Incubus


Estás en: Inicio > Letra I > Acordes y tablaturas de Incubus > Sick Sad Little World Solo
Sick Sad Little World Solo
de Incubus
Puntúa este acorde/tab:      
(0.4/5)
Reportar este acorde/tab
  Añadir a tus favoritos
  Imprimir
Solo to "Sick, sad, little world"
By Incubus
A Crow Left of the Murder

The last guy who tabbed this excellent song did an excellent job with everything
For this solo, Mike has a sort of "aquatic" effect.  You can imitate it by using

~- pinch harmonic

E-------------------------------------------------------------------------------
B-
G---2/4------4-4/6------6--8--6--8--6--8-6--8-6-8-6-8-9-----9-------------------
D-4-----------------------------------------------------------------9---9-------
A-
E-

E-------------------------------------12-12------12-----------------------------
B-------------------------------------------------------------------14----------
G---------------------------------------------13-------13--11-------------------
D-2/4-----2/4---4/6--------------------------------------------------11/13------
A-----------------------7-------------------------------------------------------
E-------------------------------------------------------------------------------

E---------------7/--------------harmonic 12---------12--------------------------
B-12v/----------------------------------------------------------12--------------
G-11v/--------------------------------------------------------------------------
D---------------------------------------------------------9-----9-----9-11-9-9--
A-------------------------------------------------------------------------------
E-------------------------------------------------------------------------------

E-12~--14~----------------------------------------------------------------------
B----------------------12~---14~v--12--12--14--12----14--14b---12---------------
G--------------13~--------------------------------------------------------------
D-------------------------------------------------------------------------------
A-------------------------------------------------------------------------------
E-------------------------------------------------------------------------------

E-14--12------------------------------------------------------------------------
B-----------14--12----------------------12-14-12---------14-12-------------5----
G---------------------11--11b--9-11-----------------13----------------------6--6
D-------------------------------------------------------------------------------
A-------------------------------------------------------------------------------
E-------------------------------------------------------------------------------

Ok, for this next part, you need to use a couple of pedals.  I don't know exactl

E-9999999999999999999/7777777/121212121212121212--141414141414141414/222/44/2222
B-------------------------------------------------------------------------------
G-------------------------------------------------------------------------------
D-------------------------------------------------------------------------------
A-------------------------------------------------------------------------------
E-------------------------------------------------------------------------------

E-121212121212/11-11-11-11-11/99999999999/11-11-11-11-11-11/12121212121212/77777
B-------------------------------------------------------------------------------
G-------------------------------------------------------------------------------
D-------------------------------------------------------------------------------
A-------------------------------------------------------------------------------
E-------------------------------------------------------------------------------

E-14-14-14-14-14/--16-16-16-16-16/--17-17-17-17-17-17/--19-19-19-19-19/--21-21-2
B-------------------------------------------------------------------------------
G-------------------------------------------------------------------------------
D-------------------------------------------------------------------------------
A-------------------------------------------------------------------------------
E-------------------------------------------------------------------------------

E-16p12-----------16p12-----------16p12-----------16p12-----------16p12---------
B------16p12-16p12-----16p12-16p12-----16p12-16p12-----16p12-16p12-----16p12-16p
G-------------------------------------------------------------------------------
D-------------------------------------------------------------------------------
A-------------------------------------------------------------------------------
E-------------------------------------------------------------------------------

E-16p12-----------16p12------------12/16/12/19--19p14--------19p14-------19p14--
B------16p12-16p12-----16p12-16p12--------------------17p14--------17p14------17
G-------------------------------------------------------------------------------
D-------------------------------------------------------------------------------
A-------------------------------------------------------------------------------
E-------------------------------------------------------------------------------

E-19p14-------19/21-21-21-21-21-21-21-21-21-21
B------17p14----------------------------------
G---------------------------------------------
D---------------------------------------------
A---------------------------------------------
E---------------------------------------------

Well, there is the whole solo.  That is really very close to accurate. I couldn'

		   
AcordesyTabs.com © 2008 Acordes y Tablaturas para guitarra. Tabs and Chords for guitar. Aviso Legal - Contacto
El uso de este sitio está sujeto a la aceptación de los términos y condiciones (31 usuarios online)