tablaturas, partituras y acordes para guitarra
Busca por banda/artista:
 
y/o título de la canción:
A B C D E F G H I J K L M N O P Q R S T U V W X Y Z 0 1 2 3 4 5 6 7 8 9 / Top 100 tabs
Categorías
Usuarios
usuario:
Darse de alta
password:
Artistas más visitados
Publicidad
TOP acordes y tablaturas de Incubus


Estás en: Inicio > Letra I > Acordes y tablaturas de Incubus > Sick Sad Little World
Sick Sad Little World
de Incubus
Puntúa este acorde/tab:      
(0.3/5)
Reportar este acorde/tab
  Añadir a tus favoritos
  Imprimir
Band: Incubus
Song: Sick sad little world
Album: ACLOTM
Tabbed By: FaTSkUnK

e|------------------------------------------------------------------------|
B|-------------------------------------------------0-0--------------------|
G|-------------------------------------------------4-4-x-1--1-1-x-x-------|
D|------------------4--------------2---------------2-2-x-2--2-2-x-x-4-4-4-|
A|-------4--4---------------0h2h4----4-2-0-2-4-----4-4-x-4--4-4-x-x-4-4-4-|
E|--0-4---4--4--0-4---4-0~~-----------------------------------------2-2-2-|

e|------------------------------------------------------------------------|
B|-------------------------------------------------0-0--------------------|
G|-------------------------------------------------4-4-x------------------|
D|------------------4--------------2---------------2-2-x--4-4-4-x-x-7-7-7-|
A|-------4--4---------------0h2h4----4-2-0-2-4-----4-4-x--4-4-4-x-x-7-7-7-|
E|--0-4---4--4--0-4---4-0~~-------------------------------2-2-2-x-x-5-5-5-|


[00:25]

e|------------------------------------------------------------------------------
B|------------------------------------------------------------------------------
G|------------------------------------------------------------------------------
D|------------------------------------------------------------------------------
A|4---4-4-4---4------4---4-4-4---4-0---0-0-0---0--------------------------------
E|------------------------------------------------2---2-2-2---2------0---0-0-0--


e|------------------------------------------------------------------------------
B|------------------------------------------------------------------------------
G|------------------------------------------------------------------------------
D|------------------------------------------------------------------------------
A|4---4-4-4---4------4---4-4-4---4-0---0-0-0---0--------------------------------
E|------------------------------------------------2---2-2-2---2------0---0-0-0--


[00:51]

  2X
e|-------------------------------------------------|
B|-------------------------------------------------|
G|----6------6-7-2---------------------------------|
D|-4--6---4--6-7-2---------------------------------|
A|-4--4---4--4-5-0---------------------------------|
E|-2------2----------------------------------------|

[02:56]

e|------------------------------------0-|
B|------------------------------------0-|
G|--------4-4-----------4-4---------4-4-|
D|--------2-2-----------2-2---------2-2-|
A|--------4-4-----------4-4---------4-4-|
E|-0-2-0---------0-2-0--------0-2-0---0-|


e|---------------------------------------------------------------|
B|---------------------------------------------------------------|
G|---------------------------------------------------------------|
D|-4/9~--9/11~-----11-13-11-13----11-13-11-13-11-13-14--9---(14)-|
A|---------------------------------------------------------------|
E|---------------------------------------------------------------|

[03:22]

e|------------------------------------------------------------------------------
B|------------------------------------------------------------------------------
G|-8/118--8/118---6/116----6h8p6-2h4--4/2-2-1-1--2--1h2p1--------------------|
D|------------------------------------------------------------2--2/4--4---4/6-2-
A|------------------------------------------------------------------------------
E|------------------------------------------------------------------------------




e|-12--12---------9------7------4--2h4p2p0h2---4--------------------------------
B|--------9--9-7-----74----42------------------2/4-4/5--52-----4p2-4/5-2---4-5--
G|------------------------------------------------------------------------------
D|------------------------------------------------------------------------------
A|------------------------------------------------------------------------------
E|------------------------------------------------------------------------------

[03:45]

e|-5//---------------12--------------------------------------------------|
B|-5//---12---------------12--------------------------5-/7--9------------|
G|-----------------9-----------11-------------------6----------9-9/8-8/9-|
D|----------------------9-------------------------5----------------------|
A|---------------------------9-------------------------------------------|
E|---------------------------------9/7----7/9----------------------------|

[03:59]

                                                         pm.......
e|-12-14-------------------------------------14--12--14--12-14-12--20b--20b-|
B|-------------------12-14-12-----12/14--12---------------------------------|
G|---------11-13------------------------------------------------------------|
D|--------------------------------------------------------------------------|
A|--------------------------------------------------------------------------|
E|--------------------------------------------------------------------------|


e|-12/14--12--------------------------------------------------|
B|------------14-12---------------------12-14-12-------14-12--|
G|------------------11---11bbr----11-13-----------11b---------|
D|------------------------------------------------------------|
A|------------------------------------------------------------|
E|------------------------------------------------------------|

[04:18]

e|-------------------------------9--|
B|----5---------5---------5------x--|
G|------6---------6---------6----6--|
D|--5-----5---5-----5---5-----------|
A|----------------------------------|
E|----------------------------------|
		   
AcordesyTabs.com © 2008 Acordes y Tablaturas para guitarra. Tabs and Chords for guitar. Aviso Legal - Contacto
El uso de este sitio está sujeto a la aceptación de los términos y condiciones (29 usuarios online)