tablaturas, partituras y acordes para guitarra
Busca por banda/artista:
 
y/o título de la canción:
A B C D E F G H I J K L M N O P Q R S T U V W X Y Z 0 1 2 3 4 5 6 7 8 9 / Top 100 tabs
Categorías
Usuarios
usuario:
Darse de alta
password:
Artistas más visitados
Publicidad
TOP acordes y tablaturas de Pescado Rabioso


Estás en: Inicio > Letra P > Acordes y tablaturas de Pescado Rabioso > Todas las hojas son del viento
Todas las hojas son del viento
de Pescado Rabioso
Puntúa este acorde/tab:      
(0.3/5)
Reportar este acorde/tab
  Añadir a tus favoritos
  Imprimir
  Cuida bien al niño| 
e|0-----------------|
b|3-----------------| No se como se llama este acorde (es como un Fmaj7)
G|4-----------------|
D|5-----------------|
A|x-----------------|
E|x-----------------|

  cuida bien su mente
e|-0-----------------|
b|-1-----------------|
G|-2-----------------| G? Tampoco se como se llama este acorde 
D|-3-----------------|
A|-x-----------------|
E|-x-----------------|


  dale sol de enero
e|0-----------------| 
b|3-----------------|
G|4-----------------| Fmaj7?
D|5-----------------|
A|x-----------------|
E|x-----------------|

  dale un vientre blanco  
e|-0-----------------|
b|-1-----------------|
G|-2-----------------| G?
D|-3-----------------|
A|-x-----------------|
E|-x-----------------|




 G5  F#5   F5    E
 dale tibia leche de tu cuerpo

C           D              G    G7
 Todas las hojas son del viento
C           D                      G    G7
 ya que el las mueve hasta en la muerte
C           D              G   
 todas las hojas son del viento
          Fmaj7   G
 menos la luz del sol

 Hoy un hijo hiciste
 cambia ya tu mente
 cuidalo de drogas
 nunca lo reprimas
 dale el aurea misma de tu sexo

 Todas las hojas son del viento
 ya que el las mueve hasta en la muerte
 todas las hojas son del viento
 menos la luz del sol

Solo del final
e|-----------------------------------------------------------------------------|
b|--17(b18)--17--15-------------------------15---------------------------------|
G|-------------------16--14--16--14--14(b15)----14--12----12-------------12--12|
D|-----------------------------------------------------14-----12--13--14-------|
A|-----------------------------------------------------------------------------|
E|-----------------------------------------------------------------------------|

Repite lo mismo varias veces
		   
AcordesyTabs.com © 2008 Acordes y Tablaturas para guitarra. Tabs and Chords for guitar. Aviso Legal - Contacto
El uso de este sitio está sujeto a la aceptación de los términos y condiciones (33 usuarios online)