tablaturas, partituras y acordes para guitarra
Busca por banda/artista:
 
y/o título de la canción:
A B C D E F G H I J K L M N O P Q R S T U V W X Y Z 0 1 2 3 4 5 6 7 8 9 / Top 100 tabs
Categorías
Usuarios
usuario:
Darse de alta
password:
Artistas más visitados
Publicidad
TOP acordes y tablaturas de Sw1tched


Walk away
de Sw1tched
Puntúa este acorde/tab:      
(0.3/5)
Reportar este acorde/tab
  Añadir a tus favoritos
  Imprimir

SW1TCHED
Walk Away
from the album ‘Subject to Change’

Tuning (low to high): A-E-A-D-G-B


Intro (clean):
[----0-----0-----0-----0-----0-----0---------
[--------------------------------------------
[--------------------------------------------  play 2X
[2-----0-----2-----3-----7-----6-----2-0-2-3-
[--------------------------------------------
[--------------------------------------------

Verse:
[----0-----0-----0-----0-----0-----0---------
[--------------------------------------------
[--------------------------------------------  play 4X
[2-----0-----2-----3-----7-----6-----2-0-2-3-
[--------------------------------------------
[--------------------------------------------

Second guitar plays this 3rd and 4th time palm muted (distortion)
[--------------------------------------------
[--------------------------------------------
[--------------------------------------------
[--------------------------------------------
[--------------------------------------------
[2-2-2-0-0-0-2-2-2-3-3-3-7-7-7-6-6-6-2-0-2-3-

Pre-chorus (distortion):
[------------------------x-x-
[------------------------x-x-
[------------------------x-x-
[2-----2-----2-----2-----x-x-
[2-----2-----2-----2-----x-x-
[2-----2-----2-----2-----x-x-

[---------------------------------
[---------------------------------
[---------------------------------
[5-5-5-5-5-5-5-5-5-5-5-5-5-7/9-0--
[5-5-5-5-5-5-5-5-5-5-5-5-5-5/7-0--
[5-5-5-5-5-5-5-5-5-5-5-5-5-----0--

Chorus (distortion):
[--------------------------------
[--------------------------------
[--------------------------------
[2-2-2-2-2-2-2-2-5-5-5-5-5-5-5-5-
[2-2-2-2-2-2-2-2-5-5-5-5-5-5-5-5-
[2-2-2-2-2-2-2-2-5-5-5-5-5-5-5-5-

[--------------------------------
[--------------------------------
[--------------------------------
[2-2-2-2-2-2-2-2-5-5-5-5-5-7/9-0-
[2-2-2-2-2-2-2-2-5-5-5-5-5-5/7-0-
[2-2-2-2-2-2-2-2-5-5-5-5-5-----0-

[--------------------------------
[--------------------------------
[--------------------------------
[2-2-2-2-2-2-2-2-7-7-7-7-7-7-7-7-
[2-2-2-2-2-2-2-2-7-7-7-7-7-7-7-7-
[2-2-2-2-2-2-2-2-7-7-7-7-7-7-7-7-

[--------------------------------
[--------------------------------
[--------------------------------
[3-3-3-3-3-3-3-3-5-5-5-5-5-------
[3-3-3-3-3-3-3-3-5-5-5-5-5-------
[3-3-3-3-3-3-3-3-5-5-5-5-5-------

Verse

Pre-chorus

Chorus

Bridge (distortion):
[--------------------
[--------------------
[--------------------
[2-0-----------------
[----2-1-0-----------
[----------5-2-----0-

[----------------------------
[----------------------------
[----------------------------play 3X (1st and 2nd time palm muted)
[------------2---3-----------
[----------------------------
[2-2-2-0-0-0---------0---2-3-

[------------------------------------------------
[------------------------------------------------
[------------------------------------------------
[------------2---3---3-3-3-3-3-3-3-3-3-3-3-3-3-3-
[--------------------3-3-3-3-3-3-3-3-3-3-3-3-3-3-
[2-2-2-0-0-0---------3-3-3-3-3-3-3-3-3-3-3-3-3-3-

chorus
(add this after chorus) (distortion)
[--------------------------------
[--------------------------------
[--------------------------------
[3-3-3-3-3-3-3-3-5-5-5-5-5-5-5-5-
[3-3-3-3-3-3-3-3-5-5-5-5-5-5-5-5-
[3-3-3-3-3-3-3-3-5-5-5-5-5-5-5-5-

Ending (distortion):
[--------------------------------------------
[--------------------------------------------
[--------------------------------------------  play 2X
[2-2-2-0-0-0-2-2-2-3-3-3-7-7-7-6-6-6-2-0-2-3-
[2-2-2-0-0-0-2-2-2-3-3-3-7-7-7-6-6-6-2-0-2-3-
[2-2-2-0-0-0-2-2-2-3-3-3-7-7-7-6-6-6-2-0-2-3-

[----------------------
[----------------------
[----------------------
[--2-0-----------------
[------2-1-0---------0-
[2-----------5-2-----0-
                     ^end on

~35 Lives
zegro422sowl@yahoo.com

		   
AcordesyTabs.com © 2008 Acordes y Tablaturas para guitarra. Tabs and Chords for guitar. Aviso Legal - Contacto
El uso de este sitio está sujeto a la aceptación de los términos y condiciones (20 usuarios online)