tablaturas, partituras y acordes para guitarra
Busca por banda/artista:
 
y/o título de la canción:
A B C D E F G H I J K L M N O P Q R S T U V W X Y Z 0 1 2 3 4 5 6 7 8 9 / Top 100 tabs
Categorías
Usuarios
usuario:
Darse de alta
password:
Artistas más visitados
Publicidad
TOP acordes y tablaturas de Rojo


Estás en: Inicio > Letra R > Acordes y tablaturas de Rojo > No Me Avergüenzo
No Me Avergüenzo
de Rojo
Puntúa este acorde/tab:      
(0.4/5)
Reportar este acorde/tab
  Añadir a tus favoritos
  Imprimir
El intro no esta a tiempo asi ke oigan la cansion para ke le puedan agarrar.
bueno ahi se las dejo.


e|----------------------------------------------------
b|------------------8--7------------------------------
g|------------7--9--------7--9------------------7--9--
d|---/10-----------------------9--------/10-----------
a|----------------------------------------------------
e|----------------------------------------------------

 |----------------------------------------------------
 |---8--7---------------------------------------------
 |---------7--9-9/16----------------------------------
 |----------------------------------------------------
 |----------------------------------------------------
 |----------------------------------------------------

C                       Em 
Hay miles de voces a mi rededor 
 C                       Em 
muchas corrientes de insatisfacción 
 C                         Em 
el mundo esta en busca de la solución 
 C                     Em 
pero encontré mas que una razón 
  
 G                   D                 Em              C    
No me averguenzo del evangelio por que es   poder de Dios 
 G               D                        Em          C 
no me averguenzo de decir que Cristo vive en  mi corazón 
G        D          Em       C 
no no no no no no,  no no no no no no 
G        D          Em       C 
no no no no no no,  no no no no no no 
  
  C                     Em 
Dicen que el cosmo fue una explosión 
 C                       Em  
y actuan diciendo ya no existe Dios 
  C                  Em 
creen que perdi mi cerebro y mi razón 
 C               Em 
pero mi fe no se moverá 
  
 C                             Em   
No es un secreto que voy a guardar 
                           Bb 
y no existe nada que me moverá 
                               Em 
no cambio por nada a Cristo Jesús 

solo

coro

bueno eso fue todo disfutenla.algun comentario, 
pregunta, burla, o lo ke sea.
vic_molina@hotmail.com
		   
AcordesyTabs.com © 2008 Acordes y Tablaturas para guitarra. Tabs and Chords for guitar. Aviso Legal - Contacto
El uso de este sitio está sujeto a la aceptación de los términos y condiciones (9 usuarios online)