tablaturas, partituras y acordes para guitarra
Busca por banda/artista:
 
y/o título de la canción:
A B C D E F G H I J K L M N O P Q R S T U V W X Y Z 0 1 2 3 4 5 6 7 8 9 / Top 100 tabs
Categorías
Usuarios
usuario:
Darse de alta
password:
Artistas más visitados
Publicidad
TOP acordes y tablaturas de Incubus


Estás en: Inicio > Letra I > Acordes y tablaturas de Incubus > Summer Romance
Summer Romance
de Incubus
Puntúa este acorde/tab:      
(0.3/5)
Reportar este acorde/tab
  Añadir a tus favoritos
  Imprimir
Title: Anti-Gravity Love Song (w/ sax solo arranged for guitar)
Artist: Incubus
Ablum: S.C.I.E.N.C.E.


Transcribed by: Cho

LEGEND:

x: muted note/string
h: hammer-on
p: pull-off
/: slide
VVV: vibrato
b(1): bend-fullstep



INTRO RIFF: this is the normal pattern of the intro riff, but there are some mut
            in between.. just try to adopt the feel of the rhythm..

     RIFF A
|-----------------------------------------------------------|-------------------
|-----------------------------------------------------------|-------------------
|-----------------------------------------------------------|-------------------
|-----------------------------------------------------------|-------------------
|-x-x-x--x-x-2h5-2-0h2-------2h5-2-0h2-------2h5-2-0h2------|-2h5-2-0h2.......--
|----------------------2-2h5-----------3-3h5-----------2-2h5|-------------------


RIFF B: change with RIFF A, when the bassline kicks in...
|------------------|
|------------------|
|------------------|
|------------------|
|-2h5-0h2----------|
|---------3h5-0h2--|


INTRO LICK:        VERSE: the lick in the verse part, i think,
      has an octave higher along.. but i don't use it.

|-7-10-7------------------------------|--7------------------------|
|--------9----------------------------|--7------------------------|
|----------7-9-----7---9---7/9-9-7-7--|--7---7-9-9/11-9-7h9-7-----|
|--------------7p6---7---7------------|--7--------------------9---|
|-------------------------------------|--9------------------------|
|-------------------------------------|--7------------------------|


REFRAIN:
these are the chord progressions used for the refrain
it's all there is to it.. just figure it out...
    
|-7--5--6--7--|--7--|--7--|
|-8--7--8--7--|--7--|--7--|
|-7--6--6--7--|--7--|--7--|
|-9--7--8--7--|--5--|--7--|
|-7--5--7--9--|-----|--9--|
|-------6--7--|-----|--7--|


CHORUS:
repeat the intro riff, then these chord progression..

|------------------------7--|
|------------------------7--|
|-3-x-x-x-3--------7-6---7--|
|-5-x-x-x-5--4-2-4-7-6---7--|
|-5-x-x-x-5--4-2-4-5-4---9--|
|-3-x-x-x-3--2-0-2-------7--|


SOLO:
sax arranged for guitar

    VVV     VVV          VVV  VVV
|---------------------------------10-9--|-------9h10-9--------------------------
|-------------------------10---10-------|-10-12----------12-11-10-9---------10h1
|-------------7---7-9-7-9----9----------|-----------------------------11-12-----
|-------7---7---7-----------------------|---------------------------------------
|-----7---7-----------------------------|---------------------------------------
|--10-----------------------------------|---------------------------------------

    VVV       
|-------------------------------------------------|-----------------------------
|----------------------9h10p9p7---7---------------|------10---------------10----
|-11-9-10-11p7---9p6------------9---9-7-6-7---9---|--9-7----9---7-9-9p7-9----9-9
|--------------9-----7----------------------9---7-|-----------------------------
|-------------------------------------------------|-----------------------------
|-------------------------------------------------|-----------------------------

|----------------------------------------------|--------------------------------
|----------------------------------------------|--------------------------------
|----------------------------------------------|-----------------9--------------
|----------------------------------------------|---------9-11-12---12-11-11-9---
|-14-12-14-9/11-14-11-11-14-11-11-14-9/11-14-9-|-9-11-12----------------------12
|----------------------------------------------|--------------------------------

                            VVV
|-------------------------9---------------------------------------------|
|------10---------------10--9----7---7----------------------------------|
|-9------9---------9---9-----------9---9-7-6-7------------------9-6-----|
|--12-------12-------11------------------------9-7---7-9----7-9-----7---|
|-------------12-----------------------------------9------------------9-|
|-----------------------------------------------------------------------|

         VVV
|-------------------------------------------------------------------------------
|----------------10-12----12-10------10------------------10-12b(1)--------------
|-----------9-11-------11-------11-9----9/11-9----------9------------7-9-7-6-7/9
|------9-11------------------------------------12-----11------------------------
|-9-12----------------------------------------------12--------------------------
|-------------------------------------------------------------------------------

*end of solo

lesson: solo part of sax, i've arranged for guitar. this is, i believe, 99% accu
it took me an hour for this one. there are some parts of the solo that's hard
to play which needs a bit of sweeping & rolling (if you're not aware of that,
try to check out john petrucci lessons!) anyway, one instance from the solo is
at the 1st bar. what i did to play this easily it to pick every 3-note pattern
in an alternate-picking manner (which i think was called in/out-of-string-pickin
john petrucci, i can't hardly remember). to explain further, pick the 1st note 
with a downstroke, then the 2nd note with an upstroke, then the 3rd note with an
and so on.. until you came down with the last 4 notes (i'm talkin about the 1st 
i hope you still follow).. you can then try to sweep it down. and on the left ha
your index finger does the rolling, in that way the notes wouldn't sound as if
they were being plucked as chords. and one more thing, not only the first bar
of the solo needs some basic sweeping & rolling, there are also some parts that
needs straight sweep. 
anyway, if you get to practice this perfectly, try to add some light distortion
on your strings then see what it would sound like..
i hope this lesson quite gave you a help.. if not... *hands up*

please send comments/suggestion/request/money/ladies..at:

didjeridu_funkyaxeman@hotmail.com
----------------------------------------------------------------
"ito ay para sa aking mahal na darice caoimhe & doris day" -Cho 
----------------------------------------------------------------
EOF
















		   
AcordesyTabs.com © 2008 Acordes y Tablaturas para guitarra. Tabs and Chords for guitar. Aviso Legal - Contacto
El uso de este sitio está sujeto a la aceptación de los términos y condiciones (31 usuarios online)