tablaturas, partituras y acordes para guitarra
Busca por banda/artista:
 
y/o título de la canción:
A B C D E F G H I J K L M N O P Q R S T U V W X Y Z 0 1 2 3 4 5 6 7 8 9 / Top 100 tabs
Categorías
Usuarios
usuario:
Darse de alta
password:
Artistas más visitados
Publicidad
TOP acordes y tablaturas de Incubus


Estás en: Inicio > Letra I > Acordes y tablaturas de Incubus > The Warmth 2
The Warmth 2
de Incubus
Puntúa este acorde/tab:      
(0.3/5)
Reportar este acorde/tab
  Añadir a tus favoritos
  Imprimir
Artist- Incubus
Title- The Warmth
Album- Make Yourself
Track- Number 4

Standard Tunning
=slide down

I really love the opening to this song! it has a really awsome sound.

E:-32-0---0---0-------7--------
B:-------3---3---1--0-----0-----
G:------------------------------
D:------------------------------
A:------------------------------
e:------------------------------

E:-12--12-12--12-12--8--8-8--8--3--3-3--3-3--3-0-0-------
B:-12--12-12--12-12--8--8-8--8--3--3-3--3-3--3-0-0-------
G:-------------------------------------------------------
D:-------------------------------------------------------
A:-------------------------------------------------------
e:-------------------------------------------------------

Follow the same strumming patterns as the previous section
E:---------------------------------
B:---------------------------------
G:--9-------5----------------------
D:--9-------5------5------2--------
A:--7-------3------5------2--------
e:-----------------3------0--------

: )
enjoy love kristy


		   
AcordesyTabs.com © 2008 Acordes y Tablaturas para guitarra. Tabs and Chords for guitar. Aviso Legal - Contacto
El uso de este sitio está sujeto a la aceptación de los términos y condiciones (19 usuarios online)