tablaturas, partituras y acordes para guitarra
Busca por banda/artista:
 
y/o título de la canción:
A B C D E F G H I J K L M N O P Q R S T U V W X Y Z 0 1 2 3 4 5 6 7 8 9 / Top 100 tabs
Categorías
Usuarios
usuario:
Darse de alta
password:
Artistas más visitados
Publicidad
TOP acordes y tablaturas de Incubus


Estás en: Inicio > Letra I > Acordes y tablaturas de Incubus > Under My Umbrella
Under My Umbrella
de Incubus
Puntúa este acorde/tab:      
(0.3/5)
Reportar este acorde/tab
  Añadir a tus favoritos
  Imprimir
Artist: Incubus
Title: Under My Umbrella
Album: Morning View
Release Date: October 23, 2001
Guitarist: Mike Einziger
Tab Author: Dirk Lithium
Contact Info...
E-Mail: stridersquall@hotmail.com | ICQ#: 33312210

Tuning: Dropped D [D A D G B E]
(Instructions: Drop top string down 2 steps, E -> D)
v - vibrato

Intro/Chorus
Heavy distortion (that's rare in an incubus song :)
1. E|:----------
   B|:----------
   G|:10-10-10--
   D|:x--x--x--- repeat four times
   A|:8--8--8---
   D|:----------

2. E|-----------
   B|-----------
   G|-10--10--10
   D|-11--11--11 repeat four times
   A|-11--11--11
   D|-11--11--11

3. E|-------------------------------------------------------------------:|
   B|-------------------------------------------------------------------:|
   G|---------------------------------688866665-------------------------:|
   D|-333--333--333-10-10-10--6666666-688866665-------------------------:|
   A|-333--333--333-x--x--x---6666666-466644443-------------------------:|
   D|-333--333--333-8--8--8---6666666-----------------------------------:|
Repeat from "1" once, then go into verse.

Verse (pt. 1)
Clean, maybe with a planger/phaser or somethin
E|-------
B|----18-
G|-15----
D|------- repeat this throughout verse, in between part 2...
A|-------
D|-------

Verse (pt. 2)
E|-------------------------------------------------------------------
B|-------------------------------------------------------------------
G|-------------------------------------------------------------------
D|--15-15-13-13------15-15-13-13------15-15-13-13-13-----------------
A|--------------11---------------10------------------11--------------
D|-------------------------------------------------------------------
    <----------------------vibrato--------------------->
E|-------------------
B|-------------------
G|-------------------
D|-15-15-13-13-13--10 <-- vibrato
A|-------------------
D|-------------------

Chorus 1
Verse 2
Chorus 2

Pre-Bridge
E|-------------------
B|-------------------
G|---------688866665-
D|-66-333--688866665- repeat three times
A|-66-333--466644443-
D|-66-333------------

E|-----------
B|-----------
G|-----------
D|-999999-11-
A|-999999-9--
D|-999999----

Bridge
E|------------------------
B|------------------------
G|------------------------
D|-18--14----12-14-12-10-- <-- vibrato
A|------------------------ repeat four times, then go into chorus.
E|------------------------


Song Setup:
Intro (same as chorus)
Verse 1
Chorus 1
Verse 2
Chorus 2
Pre-Bridge
Bridge
Chorus 3
End (with pre-bridge riff)

Comments:
This is an AMAZING song by Incubus, off their new album "Morning View",
and I am totally going to buy this when it comes out! :) The riff was a
bit easy to figure out, but I think I tabbed it a bit confusingly...
Ah well, it's still a great song, and I urge you all to BUY the album,
even if you download it aswell!! :) SUPPORT THIS AMAZING BAND!!! :P
If you have any questions, comments, death threats, love letters, or
corrections, just contact me using one of the above methods.
Thank you, drive through.
Dirk (:09- 08 -01:)
		   
AcordesyTabs.com © 2008 Acordes y Tablaturas para guitarra. Tabs and Chords for guitar. Aviso Legal - Contacto
El uso de este sitio está sujeto a la aceptación de los términos y condiciones (22 usuarios online)