tablaturas, partituras y acordes para guitarra
Busca por banda/artista:
 
y/o título de la canción:
A B C D E F G H I J K L M N O P Q R S T U V W X Y Z 0 1 2 3 4 5 6 7 8 9 / Top 100 tabs
Categorías
Usuarios
usuario:
Darse de alta
password:
Artistas más visitados
Publicidad
TOP acordes y tablaturas de Attaque 77


Estás en: Inicio > Letra A > Acordes y tablaturas de Attaque 77 > Todo está al reves
Todo está al reves
de Attaque 77
Puntúa este acorde/tab:      
(0.6/5)
Reportar este acorde/tab
  Añadir a tus favoritos
  Imprimir
RIFF 1

     E                       B              A     B              A
     q  e  e  e  e  e  q     q  e  e  e  e  q     q  e  e  e  e  q   
 G||-----------------------|--------------------|--------------------|
4D|*-----------------------|--------------------|--------------------|
4A|*--7--7--7--7--7--6-----|--------------------|--------------------|
 E||--------------------7--|--4--4--4--4--4--7--|--4--4--4--4--4--7--|
                                                                     

    D#                      E
    q  e  e  e  e  e  e     e  e  e  e  e  e  q   
G|-----------------------|-----------------------|
D|-----------------------|-----------------------|
A|--6--6--6--6--6--6--6--|--7--7--7--7--7--6-----|
E|-----------------------|--------------------7--|


     E                       B              A#    B              A#
     q  e  e  e  e  e  q     q  e  e  e  e  q     q  e  e  e  e  q  
G|-----------------------|--------------------|--------------------|
D|-----------------------|--------------------|--------------------|
A|--7--7--7--7--7--6-----|--------------------|--------------------|
E|--------------------7--|--4--4--4--4--4--7--|--4--4--4--4--4--7--|

    D#                         E 
    e  e  e  e  e  e  e  e     e  e  e  e  e  e  q  2x  
G|--------------------------|-----------------------||
D|--------------------------|-----------------------*|
A|--6--4--6--4--6--4--6--4--|--7--6--7--6--7--6-----*|
E|--------------------------|--------------------7--||


RIFF 2

     C#             E     C#             E     A#
     q  e  e  e  e  q     q  e  e  e  e  q     e  e  e  e  e  e  e  e  
G||--------------------|--------------------|--------------------------||
D||--------------------|--------------------|--------------------------||
A||--4--4--4--4--4--7--|--4--4--4--4--4--7--|--------------------------||
E||--------------------|--------------------|--6--4--6--4--6--4--6--4--||


    E                       C#             E
    q  e  e  e  e  e  q     q  e  e  e  e  q   
G||-----------------------|--------------------|
D||-----------------------|--------------------|
A||--7--7--7--7--7--6--4--|--4--4--4--4--4--7--|
E||-----------------------|--------------------|

     C#             E     B
     q  e  e  e  e  q     q  e  e  e  e  q   
G|---------------------|--------------------||
D|---------------------|--------------------||
A|---4--4--4--4--4--7--|--------------------||
E|---------------------|--7--7--7--7--7--7--||



RIFF 3

     G#                   D#                   E
     q  e  e  e  e  q     q  e  e  e  e  q     q  e  e  e  e  q  
G||--------------------|--------------------|--------------------|
D|*--------------------|--------------------|--------------------|
A|*--------------------|--6--6--6--6--6--6--|--7--7--7--7--7-----|
E||--4--4--4--4--4--4--|--------------------|-----------------6--|

    B                    F#
    q  e  e  e  e  q     q  e  e  e  e  q  2x
G|--------------------|--------------------||
D|--------------------|--------------------*|
A|-----------------7--|--9--9--9--9--9--9--*|
E|--7--7--7--7--7-----|--------------------||



RIFF 4

     G#                   D#                   C#
     q  e  e  e  e  q     q  e  e  e  e  q     q  e  e  e  e  q      
G||--------------------|--------------------|--------------------|
D|*--------------------|--------------------|--------------------|
A|*--------------------|--------------------|-----------------6--|
E||--4--4--4--4--4--6--|--7--7--7--7--7--7--|--4--4--4--4--4-----|

    E                     D#
    q  e  e  e  e  q      q  e  e  e  e  e  e  2x
G|--------------------|------------------------||
D|--------------------|------------------------*|
A|--7--7--7--7--7--7--|---6--6--6--6--6--6--6--*|
E|--------------------|------------------------||


ORDEN
Intro        Riff 1
verso 1        Riff 1
               Riff 2
Intro	     Riff 1
Verso 2        Riff 1
               Riff 2
Estribillo   Riff 3
             Riff 4
Verso 3        Riff 1
               Riff 2
Estribillo   Riff 3
             Riff 4

================================================
Cualquier duda o comentario manden un mail.
q = negra
e = corcheas
Los tiempos si no los entienden del tab saquenlos con el CD.

Aguante Attaque! Aguante Raffa Gorgory!
		   
AcordesyTabs.com © 2008 Acordes y Tablaturas para guitarra. Tabs and Chords for guitar. Aviso Legal - Contacto
El uso de este sitio está sujeto a la aceptación de los términos y condiciones (34 usuarios online)