tablaturas, partituras y acordes para guitarra
Busca por banda/artista:
 
y/o título de la canción:
A B C D E F G H I J K L M N O P Q R S T U V W X Y Z 0 1 2 3 4 5 6 7 8 9 / Top 100 tabs
Categorías
Usuarios
usuario:
Darse de alta
password:
Artistas más visitados
Publicidad
TOP acordes y tablaturas de Hereford


Estás en: Inicio > Letra H > Acordes y tablaturas de Hereford > Todo esta bien
Todo esta bien
de Hereford
Puntúa este acorde/tab:      
(0.5/5)
Reportar este acorde/tab
  Añadir a tus favoritos
  Imprimir
ESTE ES EL SOLO:

1ª Guitarra
e|---------------------------------------------------------------------|
B|---------------------------------------------------------------------|
G|--------------------5-------7(9)7--5-----5---------------------------|
D|------------5----------7--------------7-----------5------------------|
A|------5/7------7p5--------------------------7--7-----7--6--5--3--5---|
E|---------------------------------------------------------------------|

2ª Guitarra
e|---------------------------------------------------------------------|
B|---------2----2----3----2--------------------------------2-----------|
G|---------2----2----2----2---------5--5-------7--7--------2-----------|
D|---------2----2----4----2---------7--7-------4--4--------2-----------|
A|---------O----O----O----O----O-----------O----------O----O-----------|
E|---------------------------------------------------------------------|

1ª Guitarra
e|---------------------------------------------------------------------|
B|-----------------------------------------------------7(8)7p5---------|
G|----------2--2------2--4(5)4p2--4(6)--7(9)7p5-----5-----------5------|
D|-----2h4-------2h4-----------------------------7-----------------7---|
A|---------------------------------------------------------------------|
E|---------------------------------------------------------------------|

2ª Guitarra
e|---------------------------------------------------------------------|
B|---------2----2----3----2--------------------------------2-----------|
G|---------2----2----2----2---------5--5-------7--7--------2-----------|
D|---------2----2----4----2---------7--7-------4--4--------2-----------|
A|---------O----O----O----O----O-----------O----------O----O-----------|
E|---------------------------------------------------------------------|

1ª Guitarra
e|---------------------------------------------------------------------|
B|-8(1O)--8--(1O)--8--(1O)--8--(1O)--8--(1O)--8--(1O)--8--(1O)--8(1O)--|
G|---------------------------------------------------------------------|
D|---------------------------------------------------------------------|
A|---------------------------------------------------------------------|
E|---------------------------------------------------------------------|

e|--5----------------------------------------------12(15)--11--1O------|
B|-----5--8p5-----5--------------------1O--1O--1O------------------12--|
G|-------------8-----8p7p5-----5--9/11---------------------------------|
D|--------------------------7------------------------------------------|
A|---------------------------------------------------------------------|
E|---------------------------------------------------------------------|

2ª Guitarra
e|---------------------------------------------------------------------|
B|---------2----2----3----2--------------------------------2-----------|
G|---------2----2----2----2---------5--5-------7--7--------2-----------|
D|---------2----2----4----2---------7--7-------4--4--------2-----------|
A|---------O----O----O----O----O-----------O----------O----O-----------|
E|---------------------------------------------------------------------|

1ª Guitarra
e|----------------18------18------18------------15-------15-------15---|
B|--18(2O)-18(2O)----(2O)----(2O)----(2O)-15h18----15h18----15h18------|
G|---------------------------------------------------------------------|
D|---------------------------------------------------------------------|
A|---------------------------------------------------------------------|
E|---------------------------------------------------------------------|

1ª Guitarra
e|--------15-------15-------15-----------------------------------------|
B|--15h18----15h18----15h18----15--18(2O)--18(2O)----------------------|
G|---------------------------------------------------------------------|
D|---------------------------------------------------------------------|
A|---------------------------------------------------------------------|
E|---------------------------------------------------------------------|

2ª Guitarra
e|---------------------------------------------------------------------|
B|---------2----2----3----2--------------------------------2-----------|
G|---------2----2----2----2---------5--5-------7--7--------2-----------|
D|---------2----2----4----2---------7--7-------4--4--------2-----------|
A|---------O----O----O----O----O-----------O----------O----O-----------|
E|---------------------------------------------------------------------|
		   
AcordesyTabs.com © 2008 Acordes y Tablaturas para guitarra. Tabs and Chords for guitar. Aviso Legal - Contacto
El uso de este sitio está sujeto a la aceptación de los términos y condiciones (23 usuarios online)