tablaturas, partituras y acordes para guitarra
Busca por banda/artista:
 
y/o título de la canción:
A B C D E F G H I J K L M N O P Q R S T U V W X Y Z 0 1 2 3 4 5 6 7 8 9 / Top 100 tabs
Categorías
Usuarios
usuario:
Darse de alta
password:
Artistas más visitados
Publicidad
TOP acordes y tablaturas de los Panchos


No, no y no
de los Panchos
Puntúa este acorde/tab:      
(0.7/5)
Reportar este acorde/tab
  Añadir a tus favoritos
  Imprimir


Afinación : Requinto A D G C E A 	Tipo de compás: 4/4

 
|----------0-5-4-7-5-7-5-0---|----------0-3-2-5-3-5-3-0---|------------------------------5-|
|------0-1-----------------1-|--------------------------0-|------------0-3-1-1h0---0-1-0---|
|2-1-2-----------------------|0---0-2-4-------------------|--0-1-2-3-4-----------3---------|
|----------------------------|--4-------------------------|4-------------------------------|
|----------------------------|----------------------------|--------------------------------|
|----------------------------|----------------------------|--------------------------------|
                                s                          e                                

  
|3-2-0-----------0-3-2-0---------------|----0-5-4-7-5-7-5-0---------|
|--------------0---------3-2-1-0-------|0-1-----------------1-------|
|------------0-------------------2-1-2-|----------------------0---0-|
|----------2---------------------------|------------------------4---|
|--------2-----------------------------|----------------------------|
|------0-------------------------------|----------------------------|
       h t h                                                    s    

 
|----0-3-2-5-3-5-3-0---------|----------------------------0-|
|--------------------0-------|------0-3-1-1h0---0-1-2-3-4---|
|2-4---------------------0-1-|2-3-4-----------3-------------|
|----------------------4-----|------------------------------|
|----------------------------|------------------------------|
|----------------------------|------------------------------|


Que se diviertan :) dudas y comentarios los contestare con mucho gusto.
Tengo mas requintos pero en tabledit. para que lo escuchen en midi..
ó visintenme a http://groups.msn.com/ElMundodelaMusicaRomantica
          æææ
         (o  o)
   oOO-----(_)----------
   |    ¡Que se         |
   |     diviertan!!!   |
    -------------------oOo
           |__||__|
             || ||
         ooO  Ooo
		   
AcordesyTabs.com © 2008 Acordes y Tablaturas para guitarra. Tabs and Chords for guitar. Aviso Legal - Contacto
El uso de este sitio está sujeto a la aceptación de los términos y condiciones (16 usuarios online)