tablaturas, partituras y acordes para guitarra
Busca por banda/artista:
 
y/o título de la canción:
A B C D E F G H I J K L M N O P Q R S T U V W X Y Z 0 1 2 3 4 5 6 7 8 9 / Top 100 tabs
Categorías
Usuarios
usuario:
Darse de alta
password:
Artistas más visitados
Publicidad
TOP acordes y tablaturas de Attaque 77


Iemanja
de Attaque 77
Puntúa este acorde/tab:      
(0.3/5)
Reportar este acorde/tab
  Añadir a tus favoritos
  Imprimir
Intro: Punteo o A
  Punteo
e|-------------|
B|-------------|
G|-------------|
D|-2-2-2--2----|
A|-0-0-0--0-2--|
E|--3-3----3-3-|

  Solo 1:18
e|-----------------|----------------------|
B|-----------5---5-|---------------8------|
G|------5-7-5-7-5--|------5-7-5-7/9-9-7-5-|
D|-7-5-7-----------|-7-5-7----------------|
A|-----------------|----------------------|
E|-----------------|----------------------|

e|-------------------------------------------------------15----|
B|-11/12/11/12-9-11/12/11/12-9-11/12/11/12~-/13/14/15/16p--16p-|
G|-------------------------------------------------------------|
D|-------------------------------------------------------------|
A|-------------------------------------------------------------|
E|-------------------------------------------------------------|

Final 2:09 (en realidad es saxo, fijense como sale)
e|-----------------------------17-17--|
B|------------------------------------|
G|-------------------4------4-5-----4-|
D|-7-7-5-7-5-7--7-7-5-5-7--7----------|
A|------------7-----------------------|
E|------------------------------------|

Punteo o A
Buen intento, buena intención, 
Conquistarás el mundo con tu canción 
E
Que no conmueve, no deslumbra… 
Frente al mar es nada, y nada de eso existe 

Punteo

Aires de gloria, seguridad, grandes hazañas, 
Vida triunfal, mas progreso, mas creación, 
Lujo, fama, poder…nada de eso existe… 

Punteo
F             A
Guerra santa, revolución, 
F             A
Pose humilde,superación,
F               A
Vida al límite, proliferar… 
G
Madre natura, único Dios… 
Aire, agua, sol y nada más existe… 

Punteo
Solo:1:18

Nada más existe, nada de eso 

Causa justa , salvar a la humanidad 
Hedonismo, frivolidad, 
Drogas de moda, mediocridad 
Sale Iemanja reina del mal 
Tú eres todo y nada más existe.

Punteo

Final

------------------------------------------------------------
Yo se que la letra esta mal organizada, pero asi la consegui
solo arregle las partes donde puse los acordes para que sea
mas facil seguir la cancion.
		   
AcordesyTabs.com © 2008 Acordes y Tablaturas para guitarra. Tabs and Chords for guitar. Aviso Legal - Contacto
El uso de este sitio está sujeto a la aceptación de los términos y condiciones (20 usuarios online)