tablaturas, partituras y acordes para guitarra
Busca por banda/artista:
 
y/o título de la canción:
A B C D E F G H I J K L M N O P Q R S T U V W X Y Z 0 1 2 3 4 5 6 7 8 9 / Top 100 tabs
Categorías
Usuarios
usuario:
Darse de alta
password:
Artistas más visitados
Publicidad
TOP acordes y tablaturas de Incubus


Estás en: Inicio > Letra I > Acordes y tablaturas de Incubus > You Will Be A Hot Dancer
You Will Be A Hot Dancer
de Incubus
Puntúa este acorde/tab:      
(0.3/5)
Reportar este acorde/tab
  Añadir a tus favoritos
  Imprimir
     SONG: You Will Be A Hot Dancer
     BAND: Incubus
    ALBUM: Enjoy Incubus
   TUNING: (E,A,D,G,B,E)


     INTRO/VERSE: (rhythm is very tricky)

    E|-4/5-5-xx-5-x-5-xx-5-5-x-5555-4-xx-4/5-5-x-8x8P5-5-5555-4-|
    B|-4/5-5-xx-5-x-5-xx-5-5-x-5555-4-xx-4/5-5-x-8x8P5-5-5555-4-|
    G|-4/5-5-xx-5-x-5-xx-5-5-x-5555-4-xx-4/5-5-x-8x8P5-5-5555-4-|
    D|----------------------------------------------------------|
    A|----------------------------------------------------------|
    E|----------------------------------------------------------|

     PRE-CHORUS:

    E|---------------|
    B|---------------|
    G|---------------|
    D|--66-77-88-99--|
    A|--66-77-88-99--|
    E|--44-55-66-77--|
        pm.........

     CHORUS:

    E|----xxxxxxx----xxxxxxx----xxxxxxxx----xxxxxxxx--|
    B|----xxxxxxx----xxxxxxx----xxxxxxxx----xxxxxxxx--|
    G|----xxxxxxx----xxxxxxx----xxxxxxxx----xxxxxxxx--|
    D|-22---------22---------22----------22-----------|
    A|-22---------22---------22----------22-----------|
    E|-00---------00---------00----------00-----------|

     AFTER 2ND CHORUS:

    E|-----------------------------------------------------------------------|
    B|-----------------------------------------------------------------------|
    G|--7--7--7--7--------5--5--5--5------7--7--7--7---2---------------------|
    D|--7--7--7--7--------5--5--5--5------7--7--7--7-----00-320--------3333--|
    A|--5--5--5--5--------3--3--3--3------5--5--5--5------------310----3333--|
    E|--------------------------------------------------------------32-1111--|

     SOLO:

    E|--------------------------------------------------------------------------
    B|-----------------------------------------------------------------------12^
    G|-14---------------------10P9H10P9H10P9--10-10-9H10P9-----------10P9H10----
    D|-----15--10-10-10-12----------------------------------10H12---------------
    A|--------------------------------------------------------------------------
    E|--------------------------------------------------------------------------

    E|--------------------------------------------------------------------------
    B|-10-8-10-8^slight bend---12^-12^-12^-10-8-10-8^slight bend----------------
    G|------------------------------------------------------------10-10-10-109-
    D|--------------------------------------------------------------------------
    A|--------------------------------------------------------------------------
    E|--------------------------------------------------------------------------

    E|--------------------------------------------------------------------------
    B|---------18-18-17-15----15-----------------------18-18-------18-18----18--
    G|---------------------17----17-15-14^--------17-17------17-17-------------1
    D|-10-12--------------------------------15-15-------------------------------
    A|--------------------------------------------------------------------------
    E|--------------------------------------------------------------------------

    E|----------------------------------------------------------------------20^-
    B|----18----------------------------------------------------------------19^-
    G|-19----19-17-17^-17----17------------------------------------19-17H19-----
    D|--------------------19----19-17^--17-------17-17-17-19-17-15--------------
    A|-------------------------------------15-15--------------------------------
    E|--------------------------------------------------------------------------

you wil be a hot dancer solo
tabber:enjoyincubus 69
most other versions i have played were pants so here is my attempt

------------------------------------------------------------------------------
-10---------------------------------------------------------------------------
-----------------------10p9-10p9-10-10-10-10----------------------------------
-------10h12---10h12---------------------------10---10h12---------------------
------------------------------------------------------------------------------
------------------------------------------------------------------------------
                                                                              

------------------------------------------------------------------------------
-----------12vvvp10--10-----------12-12vvvp10--10-----------------------------
-12p10h12----------12---12b14r12-------------12---12b14r12--------------------
------------------------------------------------------------------------------
------------------------------------------------------------------------------
------------------------------------------------------------------------------
                                                                              

------------------------------13-12-11-10----10-------------------------------
------------------------------------------13----13-12b14vvv-------------------
--10/9---10p9-----------------------------------------------------------------
----------------10h12-10h12---------------------------------------------------
------------------------------------------------------------------------------
------------------------------------------------------------------------------
                                                                              

--------------13-13-------13---13--10-10--13p10-------------------------------
--------12-12-------12-12-----------------------------------------------------
--10-10-----------------------------------------------------------------------
------------------------------------------------------------------------------
------------------------------------------------------------------------------
------------------------------------------------------------------------------
               

----10-----------------------------------------------------------10--10-------
-13----13b15----10--------------------------------------------13-----13b15----
-------------12----12b14r12-----10-10--10/12---/1412--10--12-----------------
------------------------------------------------------------------------------
------------------------------------------------------------------------------
------------------------------------------------------------------------------

		   
AcordesyTabs.com © 2008 Acordes y Tablaturas para guitarra. Tabs and Chords for guitar. Aviso Legal - Contacto
El uso de este sitio está sujeto a la aceptación de los términos y condiciones (21 usuarios online)