tablaturas, partituras y acordes para guitarra
Busca por banda/artista:
 
y/o título de la canción:
A B C D E F G H I J K L M N O P Q R S T U V W X Y Z 0 1 2 3 4 5 6 7 8 9 / Top 100 tabs
Categorías
Usuarios
usuario:
Darse de alta
password:
Artistas más visitados
Publicidad
TOP acordes y tablaturas de los Tres


Estás en: Inicio > Letra l > Acordes y tablaturas de los Tres > No sabes que desperdicio tengo en el alma
No sabes que desperdicio tengo en el alma
de los Tres
Puntúa este acorde/tab:      
(0.5/5)
Reportar este acorde/tab
  Añadir a tus favoritos
  Imprimir
Este tema es una composición muy abstracta que puede llegar
al alma de cualquiera ... No es difícil de sacar


Transcriptor : Claudio Lizana ( Alicia Band )
Mail: clgenius@hotmail.com


  Riff # 1

  e||-----x------------------------------------------------||
  B ||----x------------------------------------------------||
  G ||----x------------------------------------------------|| 
  D ||----x---7----5----7----5----7----5----7-------10-----||
  A ||----x---7----5----7----5----7----5----7-------10-----||
  E ||----x---5----3----5----3----5----3----5--------8-----||


  Riff # 2

 e ||----x------------------------------------------------||
 B ||----x------------------------------------------------||
 G ||----x------------------------------------------------|| 
 D ||----x---7----5----7----5----7----5----7-------12-----||
 A ||----x---7----5----7----5----7----5----7-------12-----||
 E ||----x---5----3----5----3----5----3----5-------10-----||


  Intro     :       Riff  # 1      Riff  # 2            X  2  

1)    
      Riff  # 1 			Riff  #  2		
      Dime que la vida es fácil
     Riff  # 1 			Riff  #  2		
      dime que el amor es oro
     Riff  # 1 			Riff  #  2		
      dime que no hay nada que hacer y lo haré
     Riff  # 1 			Riff  #  2		
      dime que el tiempo brilla y no descansaré
     Riff  # 1 			Riff  #  2		
      hasta opacarlo
     Riff  # 1 			Riff  #  2		
     hasta opacarlooooooooo



     A   ( sonando )          F                              E
      No sabes qué desperdicio tengo en el alma
     A                              F                              E
      No sabes qué desperdicio tengo en el alma
 
      Riff  # 1 		Riff  #  2

       A                              F                              E
      No sabes qué desperdicio tengo en el alma

      A                              F                              E
      No sabes qué desperdicio tengo en el alma      
 
     A  ( pausa )      X  4 tiempos

2)
     Riff  # 1 		Riff  #  2
      Nada en las manos, salvo dinero
     Riff  # 1 		 Riff  #  2
      para desesperarme más
     Riff  # 1 		Riff  #  2
      Mátame y viviré hasta después de tu muerte
     Riff  # 1 		Riff  #  2

    A   ( sonando )          F                              E
      No sabes qué desperdicio tengo en el alma
     A                              F                              E
      No sabes qué desperdicio tengo en el alma

     Riff  # 1 		Riff  #  2

     A                              F                              E
      No sabes qué desperdicio tengo en el alma
     A                              F                              E
      No sabes qué desperdicio tengo en el alma

       e||------x------------------------------------||
       B ||-----x------------------------------------||
       G ||-----x------5--5-----7---8----------------|| 	X  6	
       D ||-----x------5--5-----7---8----------------||
       A ||-----x------3--3-----5---6----------------||
       E ||-----x------------------------------------||

      A ( sonando )                      3    tiempos


     Riff  # 1 		Riff  #  2
      Ahora vuelvo a mi vida

     Riff  # 1 		Riff  #  2
      como quien se apresta a morir
     Riff  # 1 		Riff  #  2
      Dime que el tiempo brilla y no descansaré
     Riff  # 1 		Riff  #  2
      hasta opacarlo, hasta opacarlo
     Riff  # 1 		Riff  #  2
      hasta opacarlo
     Riff  # 1 		Riff  #  2
     hasta opacarlooooooooo

 A   ( sonando )          F                              E
      No sabes qué desperdicio tengo en el alma
     A                              F                              E
      No sabes qué desperdicio tengo en el alma

   Riff  # 1 		Riff  #  2

 A   ( sonando )          F                              E
      No sabes qué desperdicio tengo en el alma
     A                              F                              E
      No sabes qué desperdicio tengo en el almaaaaaaaaaaaaaaaaaaaaaaaaaa

	uhhoooo
	
       e||------x------------------------------------||
       B ||-----x------------------------------------||
       G ||-----x------5--5-----7---8----------------|| 	X  6	
       D ||-----x------5--5-----7---8----------------||
       A ||-----x------3--3-----5---6----------------||
       E ||-----x------------------------------------||

	

A      A       A
    

    Colaboraciones especiales de OScar Gabriel Seba y Claudio

                       Alicia band 2003

    Cualquier duda o o consulta envialrla a clgenius@hotmail.com 


	+ k lo    produciones
		   
AcordesyTabs.com © 2008 Acordes y Tablaturas para guitarra. Tabs and Chords for guitar. Aviso Legal - Contacto
El uso de este sitio está sujeto a la aceptación de los términos y condiciones (25 usuarios online)