tablaturas, partituras y acordes para guitarra
Busca por banda/artista:
 
y/o título de la canción:
A B C D E F G H I J K L M N O P Q R S T U V W X Y Z 0 1 2 3 4 5 6 7 8 9 / Top 100 tabs
Categorías
Usuarios
usuario:
Darse de alta
password:
Artistas más visitados
Publicidad
TOP acordes y tablaturas de Pedro Andrea


Transparente
de Pedro Andrea
Puntúa este acorde/tab:      
(0.2/5)
Reportar este acorde/tab
  Añadir a tus favoritos
  Imprimir
Parte 1:

  C      G      Am     C          C     G       Am      C
|-------------------------------|--------------------------|
|-----------------------------3-|-5------------------------|
|----5-4-5--5-4-5--5-4-5--4-5---|---5-------54-2----------|
|-------------------------------|-----5-3-----------5-3-5--|
|-3-----------------------------|--------------------------|
|-------------------------------|--------------------------|

  C      G      Am     C            C   G        Am       C
|-------------------------------|-------------------------12-|
|-----------------------------3-|-5/65-3--------------------|
|----5-4-5--5-4-5--5-4-5--4-5---|---------5p4-/5-7--4/5-9----|
|-------------------------------|----------------------------|
|-3-----------------------------|----------------------------|
|-------------------------------|----------------------------|

  C      G      Am     C          C     G       Am      C
|-------------------------------|--------------------------|
|-----------------------------3-|-5------------------------|
|----5-4-5--5-4-5--5-4-5--4-5---|---5-------54-2----------|
|-------------------------------|-----5-3-----------5-3-5--|
|-3-----------------------------|--------------------------|
|-------------------------------|--------------------------|

  C      G      Am     C            C       G        Am  C
|-------------------------------|---------------------------|
|-------------------------------|------------------------5--|
|----5-4-5--5-4-5--5-4-5--5-5h7-|-7/97--5--5--------2---5--|
|-------------------------5-5h7-|-7/97--5--3--2-3/5---3----|
|-3-----------------------------|---------------------------|
|-------------------------------|---------------------------|



Parte 2:

  Am  C   F       C          Am  C   F       C
|--------------------------|--------------------------|
|-5h6p5--------------------|-5h6p5--------------------|
|---------4-4-5-7----------|--------------------------|
|-----------------5-3-2----|-------------5-5----------|
|--------------------------|---------5-5-----2h3p2----|
|--------------------------|--------------------------|

  Am  C   F       C          Am  C   F       C
|--------------------------|--------------------------|
|-5h6p5--------------------|-5h6p5/8------------------|
|---------4-4-5-7----------|--------------------------|
|-----------------5-3-2----|-------------5-5----------|
|--------------------------|---------5-5-----2h3p2----|
|--------------------------|--------------------------|



Acordes:

   C   G   Am  F
|--0---0---0---1--|
|--1---1---1---1--|
|--0---0---2---2--|
|--2---0---2---3--|
|--3---2---0---3--|
|------3-------1--|
            
        G6sus4?


Marcos Alonso Ruiz
[alonsoruiz@redestb.es]
		   
AcordesyTabs.com © 2008 Acordes y Tablaturas para guitarra. Tabs and Chords for guitar. Aviso Legal - Contacto
El uso de este sitio está sujeto a la aceptación de los términos y condiciones (14 usuarios online)