tablaturas, partituras y acordes para guitarra
Busca por banda/artista:
 
y/o título de la canción:
A B C D E F G H I J K L M N O P Q R S T U V W X Y Z 0 1 2 3 4 5 6 7 8 9 / Top 100 tabs
Categorías
Usuarios
usuario:
Darse de alta
password:
Artistas más visitados
Publicidad
TOP acordes y tablaturas de Platero y Tú


Tras la Barra
de Platero y Tú
Puntúa este acorde/tab:      
(0.6/5)
Reportar este acorde/tab
  Añadir a tus favoritos
  Imprimir
      Gor Kalimotxo trabaja de camarero

G||-------------------------------------
D||-------------------------------------
A||--5---------55-----------------------
E||----------------------5---------55---

     tras una barra encerrado todo el tiempo.

G||----------------------------------------
D||----------------------------------------
A||--2----------22---------2----------22---
E||----------------------------------------

Así es la estrofa repitiendo esto todo el rato.

El estribillo es:

        Este maldi, maldito trabajo
G||----------------------------------------
D||----------------------------------------
A||----------------------------------------
E||-------------2222---3333---55555555-----

        Voy a mandar a todos al cajajo
G||----------------------------------------
D||----------------------------------------
A||----------------------------------------
E||-------------2222---3333---55555555-----

     Tras la barra del bar una vida se va
G||---------------------------------------
D||---------------------------------------
A||--5-------5-------------5----5---------
E||-------5------5--3---3----5----3--5--5-


     Tras la barra del bar una vida 
G||---------------------------------
D||---------------------------------
A||--5-------5-------------5----5---
E||-------5------5--3---3----5----3-


Después se repite la estrofa y de nuevo el estribillo.
No es muy difícil, ya vereis!!
		   
AcordesyTabs.com © 2008 Acordes y Tablaturas para guitarra. Tabs and Chords for guitar. Aviso Legal - Contacto
El uso de este sitio está sujeto a la aceptación de los términos y condiciones (42 usuarios online)