tablaturas, partituras y acordes para guitarra
Busca por banda/artista:
 
y/o título de la canción:
A B C D E F G H I J K L M N O P Q R S T U V W X Y Z 0 1 2 3 4 5 6 7 8 9 / Top 100 tabs
Categorías
Usuarios
usuario:
Darse de alta
password:
Artistas más visitados
Publicidad
TOP acordes y tablaturas de Platero y Tú


Tras la Barra
de Platero y Tú
Puntúa este acorde/tab:      
(0.2/5)
Reportar este acorde/tab
  Añadir a tus favoritos
  Imprimir
+ Tabulados de made in spain!                   +
+ (http://mades.kaos.es)                        +
+++++++++++++++++++++++++++++++++++++++++++++++++

        esta por ser la primera cancion que escribo, va a ir con
   punteillo (solo el riff por supusto) y todo para ke todo el mundo
   la pueda tocar ... pero ke nadie se haga ilusiones ...


INTRO
-----
GUIT. (1) ->    D A B .. B

GUIT. (2)
e |----5--55----------5---------|---------------------------|
B |-7--------7-5 575-----5--7-5-|-0---0--3--5--7--5--3------|
G |-----------------------------|---------------------------|
D |-----------------------------|---------------------------|
A |-----------------------------|---------------------------|
E |-----------------------------|---------------------------|

e |----5--55----------5---------|-9*--7*--0--9--10--12-10-9-|
B |-7--------7-5 575-----5--7-5-|---------------------------|
G |-----------------------------|---------------------------|
D |-----------------------------|---------------------------|
A |-----------------------------|---------------------------|
E |-----------------------------|---------------------------|



D			A
CON KALIMOTXO TRABAJA CAMARERO 
B			 B
EN UNA BARRA ENCERRADO TODO EL TIEMPO
D			   A	
AGUANTA AL JEFE Y AGUANTA A LA SEÑORA
B			B
OYE CHAVAL UN LICOR DE CHIRIMOYA 
B			B
SON LAS CINCO LLEGA LA PESADILLA ... 

... igual ....
B
CON KALIMOTXO TRABAJA PERO SUEÑA ...


 **** ESTRIBILLO *******

F#
ESTE MALDI,MALDITO TRABAJO
G		    A		
VOY A MANDAR A TODOS AL CARAJO
D	A  B  G
TRAS LA BARRA DEL BAR
D A  B G
UNA VIDA SE VA 
D	A  B  G
TRAS LA BARRA DEL BAR
D A  B G
UNA VIDA SE VA 


        ahora iria el riff del principio, y luego las otras estrofas
   ke son exactamente iguales que la primera osea que con esto deberia
   valer.



        Para cualquier consulta, correccion, comentario (con o sin
   sentido) o para lo que se tercie me podeis encontrar en ...
                                                iatienzau@nexo.es
		   
AcordesyTabs.com © 2008 Acordes y Tablaturas para guitarra. Tabs and Chords for guitar. Aviso Legal - Contacto
El uso de este sitio está sujeto a la aceptación de los términos y condiciones (32 usuarios online)