tablaturas, partituras y acordes para guitarra
Busca por banda/artista:
 
y/o título de la canción:
A B C D E F G H I J K L M N O P Q R S T U V W X Y Z 0 1 2 3 4 5 6 7 8 9 / Top 100 tabs
Categorías
Usuarios
usuario:
Darse de alta
password:
Artistas más visitados
Publicidad
TOP acordes y tablaturas de Attaque 77


Estás en: Inicio > Letra A > Acordes y tablaturas de Attaque 77 > Tres Pájaros Negros
Tres Pájaros Negros
de Attaque 77
Puntúa este acorde/tab:      
(0.7/5)
Reportar este acorde/tab
  Añadir a tus favoritos
  Imprimir
-==|INTRO|==-

               w       w         Q   e   q   q       Q   e   q   q    2x     
G||--------|-------|-------||------------5-------|--------------------||
D||---4:---|-------|-------|*----3---3-------3---|-----------5--------*|
A||---4:---|---1---|---1---|*--------------------|---3---3-------3----*|
E||--------|-------|-------||--------------------|--------------------||


      Q   e   q   q       Q   e   e   e   e   q                          
G||-----------5-------|-------r-------------------|
D||---3---3-------3---|-------e-------------------|
A||-------------------|---3---s---3---6---5---3---|
E||-------------------|-------t-------------------|
                                                                                

    Q   e   e   e   e e e       h   e   e   e   e                               
G|------r-------1---3/53---|---r---r---3---0---3---||
D|------e---3---------------|---e---e---------------||
A|--1---s-------------------|---s---s---------------||
E|------t-------------------|---t---t---------------||

                                                                                

-==|Parte A|==-  X2

      Q   e   e   e   q       q   q   Q   e    2x                      
G||-----------------------|---r---r------------||
D|*-----------7-----------|---e---e------------*|
A|*---5---5-------5---5---|---s---s------------*|
E||-----------------------|---t---t---5---8----||
                                                                                

      q   q   Q   e       e e   q   e   e   e   e           
G||-------r-----------|-------------s---------------|
D||-------e-------3---|---5/7---5---t---5---3-------|
A||-------s---5-------|-------------------------5---|
E||---3---t-----------|-----------------------------|
                                                                                

     q   q   Q   e       e e   q   e   e   e   e 
G|-------r-----------|-------------r-------5---3---||
D|-------e-------3---|---5/7---5---e---5-----------||
A|-------s---5-------|-------------s---------------||
E|---3---t-----------|-------------t---------------||
                                                                                


-==|Parte B|==-                                                                     
      Q   e   e   e   e   e       h   h
G||---------------------------|---r---r---|
D||---------------------------|---e---e---|
A||---------------3-----------|---s---s---|
E||---1---1---1-------1---1---|---t---t---|
                                                                                

     Q   e   e   e   e   e       q   e   e   q   e   e               
G|---------------------------|---r---r-------------------|
D|---------------------------|---e---e-------------------|
A|---------------3-----------|---s---s-------------------|
E|---1---1---1-------1---1---|---t---t---0---1---3---5---|
                                                                                

     q   e   e   e   q   e       Q   q   e   e   e                               
G|---r---------------r-------|-------r---------------|
D|---e-------5---7---e---5---|---7---e---7---5-------|
A|---s---7-----------s-------|-------s-----------7---|
E|---t---------------t-------|-------t---------------|
                                                                                

     Q   q   e   e   q       Q   q   e   e   e                                   
G|-------r---------------|-------r---------------|
D|-------e-------5--/9/--|---7---e---7---5-------|
A|-------s---7-----------|-------s-----------7---|
E|---5---t---------------|-------t---------------|
                                                                                

    Q   e   e   e   e   e      h   h     Q   e   e   e   e   e     h   h      
G|--------------------------|--r---r--|-------------------------|--r---r--|
D|--------------------------|--e---e--|-------------------------|--e---e--|
A|--------------3-----------|--s---s--|--------------3----------|--s---s--|
E|--1---1---1-------1---1---|--t---t--|--1---1---1-------1---1--|--t---t--|


     Q   q   q   e       Q   q   q   e       Q   q   q   e               
G|---------------r---|---------------r---|---------------r---|--r---r--||
D|---------------e---|---------------e---|---------------e---|--e---e--||
A|---------------s---|---------------s---|---------------r---|--s---s--||
E|---3---3---3---t---|---1---1---1---t---|---3---3---3---t---|--t---t--||
                                                                                


-==|Parte C|==- X2

     e  e  e  e  e  e  e  e                               
G||--------------------------|
D||--------------------------|
A||--------------------------|
E||--3--3--3--3--3--3--3--3--|
                                                                                

     e   e   e   e   e   e   e   e  x2  e   e   e   e   e   e   e   e  x2
G||----------------------------------|----------------------------------||
D|*----------------------------------|----------------------------------*| X2
A|*--5---5---5---5---5---5---5---5---|----------------------------------*|
E||----------------------------------|--3---3---3---3---3---3---3---3---||
                                                                                

    e   e   e   e   e   e   e   e  x2 e   e   e   e   e   e   e   e  x2
G|---------------------------------|----------------------------------|
D|---------------------------------|----------------------------------|
A|---------------------------------|----------------------------------|
E|--1---1---1---1---1---1---1---1--|--5---5---5---5---5---5---5---5---|
                                                                                

    e   e   e   e   e   e   e   e   x2 e   e   e   e   e   e   e   e
G|----------------------------------|---------------------------------|
D|----------------------------------|---------------------------------|
A|----------------------------------|---------------------------------|
E|--1---1---1---1---1---1---1---1---|--3---3---3---3---3---3---3---3--|


    e   e   e   e   e   e   e   e     e   e   e   e   e   e   e   e 
G|---------------------------------|----------------------------------|
D|---------------------------------|----------------------------------|
A|---------------------------------|----------------------------------|
E|--1---1---1---1---1---1---1---1--|--3---3---3---3---3---3---3---3---|
                                                                                


     e   e   e   e   e   e   e   e     e   e   e   e   e   e   e   e        
G||---------------------------------|---------------------------------||
D|*---------------------------------|---------------------------------*| x2
A|*--8---8---8---8---8---8---8---8--|--3---3---3---3---3---3---3---3--*|
E||---------------------------------|---------------------------------||


    e   e   e   e   e   e   e   e                                               
G|----------------------------------||
D|----------------------------------||
A|----------------------------------||
E|--6---6---6---6---6---6---6---6---||

                      

-==|Parte D|==-

     h   h      h   h      e   e   e   e   e   e   e   e                       
G||------r---|------r---|---------------------------------|
D||------e---|------e---|---------------------------------|
A||------s---|------s---|---------------------------------|
E||--1---t---|--1---t---|--6---6---6---6---6---6---6---6--|
                                                                                

     e   e   e   e   e   e   e   e  x2  e   e   e   e   e   e   e   e  x2
G||---------------------------------|-----------------------------------||
D|*---------------------------------|-----------------------------------*| x2
A|*---------------------------------|-----------------------------------*|
E||--1---1---1---1---1---1---1---1--|---6---6---6---6---6---6---6---6---||


     e   e   e   e   e   e   e   e  x2   Q   e   e   e   q               
G||----------------------------------|-----------------------||
D||----------------------------------|-----------------------||
A||----------------------------------|---3---3---3---3---3---||
E||--4---4---4---4---4---4---4---4---|-----------------------||
                                                                                

     Q   e   e   e   q  x2   Q   e   e   e   q                           
G||----------------------|-----------------------|
D||----------------------|-----------------------|
A||----------------------|-----------------------|
E||--4---4---4---4---4---|---6---6---6---6---6---|
                                                                                

    Q   e   e   e   q       Q   e   e   e   q                                   
G|----------------------|-----------------------||
D|----------------------|-----------------------||
A|----------------------|-----------------------||
E|--4---4---4---4---4---|---6---6---6---6---6---||

      Q   e   e   e   q       Q   e   e   e   q                           
G||-----------------------|-----------------------||
D|*-----------------------|-----------------------*| x2
A|*-----------------------|---1---1---1---1---1---*|
E||---1---1---1---1---1---|-----------------------||
                                                                                

==================================================================================
==             REFERENCIA                 ====             ORDEN                ==
==================================================================================

----------                ||------|| Repeat     Intro
----5h8--- Hammeron       ||*----*||            Parte A x2
----------                ||*----*||            Parte B
----5p8--- Pulloff        ||------||            Parte C x2
                                                Parte D
----------                ----------
----5/8--- Slide Up       -4:------- Time
----------                -4:-------
----58--- Slide Down     ----------

Rhythm:
  h = blanca         H = blanca puntillada
  q = negra          Q = negra puntillada
  e = corchea        E = corchea puntillada

=========================================================================
Como siempre, comentarios, quejas, manden un mail.
Los tiempos si no los interpretan del TAB, escuchen el CD
El tema esta bueno, pero es algo complicado,
trate de pasarlo lo mas parecido a la version del CD.

Aguante Attaque! Aguante Raffa Gorgory!
		   
AcordesyTabs.com © 2008 Acordes y Tablaturas para guitarra. Tabs and Chords for guitar. Aviso Legal - Contacto
El uso de este sitio está sujeto a la aceptación de los términos y condiciones (29 usuarios online)