tablaturas, partituras y acordes para guitarra
Busca por banda/artista:
 
y/o título de la canción:
A B C D E F G H I J K L M N O P Q R S T U V W X Y Z 0 1 2 3 4 5 6 7 8 9 / Top 100 tabs
Categorías
Usuarios
usuario:
Darse de alta
password:
Artistas más visitados
Publicidad
TOP acordes y tablaturas de Attaque 77


Estás en: Inicio > Letra A > Acordes y tablaturas de Attaque 77 > Tres Pájaros Negros
Tres Pájaros Negros
de Attaque 77
Puntúa este acorde/tab:      
(0.4/5)
Reportar este acorde/tab
  Añadir a tus favoritos
  Imprimir
     Asi es la intro del bajo…
    

Guitarra sola, todos los instrumentos caen sobre LA#. El bajo hace esto:
    
G-------------------------------------
D-------------------------------------
A-----------/13-13-13-13-13-13-13-13-----6/---8--
E-----6--6-----------------------------

        
--------------------------------------------------------------      
-------------10----------------------------------------------
------8-------------8--8--------------11--11--10-----8---         X2
----------------------------8----8---------------------------

ESTO DE ARRIBA LO HACE DOS VECES, PERO LA TERCERA ES ASI…

     
G------------------------------------------------------------
D-----------10----------------------------------------------
A----8------------8--8--------------------------------------
E--------------------------8---8-----11--11---10-----6---


------------------------------------------------------------
----------6-----8----10------8----10----8---------------
----8------------------------------------------10---6--5--
------------------------------------------------------------

AHORA CON LETRA…..quise perder mi rastro…

G--------------------------------------------------------------------------
D-------7------------------------------7---------------------------------
A---5-------55/---------3---5-----5------55/------5---7---------------                                                         
E---------------------5---------------------------------------5---3------                                                          
                                                                                                                                                          
                                                                                                                                                           
-------------------------------------------------------------------------------------------------                              
-----------3----5----7-----5-----------------------------3----5----7----5--------------------
-----5---------------------------5----3-------------5---------------------------------3----5--
-------------------------------------------5----3---------------------------------5-------------

Quise perder mi rastro
G--------------------------------------------------------------------------
D-------7------------------------------7---------------------------------
A---5-------55/---------3---5-----5------55/------5---7---------------                                                         
E---------------------5---------------------------------------5---3------                                                          
                                                                                                                                                           
                                                                                                                                                          
----------------------------------------------------------------------------------------------------                            
-----------3----5----7-----5-----------------------------3----5----7----5-----3----------------
-----5---------------------------5----3-------------5---------------------------------5----3----
-------------------------------------------5----3-----------------------------------------------1--
Tres pajaros negros vuelan….

G-------------------------------------------------------------------------
D-------------------------------------------------------------------------
A---------3------------------------------3----------------------------
E----1--------1--1-----1-1----1---1--------1--1-----1--2--3--5-----

------------------------------------------------------------------------------------------------------
----------5----7----9----7--------------------------------5----7----9---7--------5---------------
-----7---------------------------7---5--------------7-----------------------------------7----5------
---------------------------------------------7---.5------------------------------------------------1--

Hice todo por echarlos
G-------------------------------------------------------------------------
D-------------------------------------------------------------------------
A---------3------------------------------3----------------------------
E----1--------1--1-----1-1----1---1--------1--1--3--3--1--1--3--3--3
                                                                                         >EMPIESA RAPIDO
                                                                                               
                                                                                                           


Durante toda la cancion, el bajo sigue la guitarra, en algunos momentos, el bajo hace esto

G------------------------------------------------------------
D---------------------------------------4----6----7---------
A---------------------4----5----7---------------------------
E----------5----7--------------------------------------------

Que no es nada mas ni nada menos que la escala de LA mayor.

Escuchen bien la cancion, los arreglos que hace durante la parte rapida son muy faciles
		   
AcordesyTabs.com © 2008 Acordes y Tablaturas para guitarra. Tabs and Chords for guitar. Aviso Legal - Contacto
El uso de este sitio está sujeto a la aceptación de los términos y condiciones (22 usuarios online)