tablaturas, partituras y acordes para guitarra
Busca por banda/artista:
 
y/o título de la canción:
A B C D E F G H I J K L M N O P Q R S T U V W X Y Z 0 1 2 3 4 5 6 7 8 9 / Top 100 tabs
Categorías
Usuarios
usuario:
Darse de alta
password:
Artistas más visitados
Publicidad
TOP acordes y tablaturas de Cky
:: Fat f - Cky


Estás en: Inicio > Letra C > Acordes y tablaturas de Cky > 96 quite bitter beings
96 quite bitter beings
de Cky
Puntúa este acorde/tab:      
(0.9/5)
Reportar este acorde/tab
  Añadir a tus favoritos
  Imprimir


Author/Artist: cKy
Title: 69 quite bitter beings
Album: camp vol. 1
Transcribed by: alan
Email: bosstoner737@hotmail.com

------------------------------------------------------------------------------
------------------------------------------------------------------------------
------------------------------------------------------------------------------
------------------------------0-----------------------------------------------
-----2--------2-3-2---2-2-3-----3-2-0---2-------------------------------------
-0-3---0--0-3-------3-------3---------2---3-----------------------------------
 main riff                                                                    

------------------------------------------------------------------------------
------------------------------------------------------------------------------
----------6-6-6---------------------------------------------------------------
-2-2-2--2-6-6-6---------------------------------------------------------------
-2-2-2--2-4-4-4---------------------------------------------------------------
-0-0-0--0---------------------------------------------------------------------
 verse                                                                        



		   
AcordesyTabs.com © 2008 Acordes y Tablaturas para guitarra. Tabs and Chords for guitar. Aviso Legal - Contacto
El uso de este sitio está sujeto a la aceptación de los términos y condiciones (16 usuarios online)