tablaturas, partituras y acordes para guitarra
Busca por banda/artista:
 
y/o título de la canción:
A B C D E F G H I J K L M N O P Q R S T U V W X Y Z 0 1 2 3 4 5 6 7 8 9 / Top 100 tabs
Categorías
Usuarios
usuario:
Darse de alta
password:
Artistas más visitados
Publicidad
TOP acordes y tablaturas de Mago De Oz


Estás en: Inicio > Letra M > Acordes y tablaturas de Mago De Oz > Tres Tristes Tigres
Tres Tristes Tigres
de Mago De Oz
Puntúa este acorde/tab:      
(0.5/5)
Reportar este acorde/tab
  Añadir a tus favoritos
  Imprimir
Este es el intro de la cancion

e--0---8-7-5--0--8-7-5-3-1-0------------0---8-7-5--0--8-7-5-3-1-0-1-3-3-------
B----------------------------3-1-1/3------------------------------------------

e--0---8-7-5--0--8-7-5-3-1-0------------
B----------------------------3-1-1/3----


e--0---8-7-5--0--8-7-5-3-1-0-1-3-3--3-3-5-5-7-5-3-5-7-8-10-15-17-----
B--------------------------------------------------------------------

Despues de estos punteos empieza la cancion...

Am     Em   C                      G
La tristeza es siempre como una esponja,
  Am       Em          C                    G
absorbe el agua de la vida hasta hacerla morir.
Am       Em  C                      G        
Sentir deseo y estrangularlo a un tiempo
    Am               Em       C              G
es llenar el mar de piedras e intentarlo cruzar.



        C                  G
Cuando veas que no puedes soportar
Am              G
el vacío de la soledad,
       C                   G
si la fuerza sólo en tu saliva está,
  Am       G Am
aprende a actuar.

Riff 1

e-0-1-0---0--------------------------------------------------
B------3-1-3-1-0-3-1----1-1-0-1------------------------------
G--------------------2--2-2-0-2------------------------------
(2 veces)

Intro

C                   G
Cuando sientas la necesidad.
       Am               G
no es bueno sólo dar de ti
    C                    G
la parte amable y 'que todo va bien'. 
  Am        G Am     C    G     Am        G Am  
Aprende a llorar              aprende a llorar

                     

C     G    Am     G Am


           Am           F
Las marcas que deja la vida
       C       G
en la cara se ven,
            Am            F
las huellas que deja el amor
       C           G
en el corazón se leen.


  F        G     Am
Aprende a ver y leer.

El final, si hay errores, favor de ayudar ;)

e-5-7-8-10-12-15-17------------------


Los tonos los saque de la colaboracion de EDSON CASTRO MEDRANO 'Gracias'

Dedico esta rola a todos los rockeros...
--------------------------------------------
mªGö d£ Öz...Dar la vida al Rock & Roll...
		   
AcordesyTabs.com © 2008 Acordes y Tablaturas para guitarra. Tabs and Chords for guitar. Aviso Legal - Contacto
El uso de este sitio está sujeto a la aceptación de los términos y condiciones (35 usuarios online)