tablaturas, partituras y acordes para guitarra
Busca por banda/artista:
 
y/o título de la canción:
A B C D E F G H I J K L M N O P Q R S T U V W X Y Z 0 1 2 3 4 5 6 7 8 9 / Top 100 tabs
Categorías
Usuarios
usuario:
Darse de alta
password:
Artistas más visitados
Publicidad
TOP acordes y tablaturas de los Panchos


Triunfamos
de los Panchos
Puntúa este acorde/tab:      
(0.7/5)
Reportar este acorde/tab
  Añadir a tus favoritos
  Imprimir
En mi menor en el  Requinto (5 medios tonos arriba)
__      
                                         
   1|---------7------------------5----------
 ) 2|--0-5-8-----10-8-10---0-4-7----8-7-8---
   3|---------------------------------------
   4|---------------------------------------
 ) 5|---------------------------------------
   6|---------------------------------------
__/


_      
                                         
   1|------0-3-2-0-2--------5-3-2-0---------
 ) 2|----0------------0-4-7-----------------
   3|--0------------------------------------
   4|---------------------------------------
 ) 5|---------------------------------------
   6|---------------------------------------
__/


        Final 1              final 2    
                                         
   1|---8-7---------------------------------
 ) 2|-------10-8-7------------1-0-----------
   3|---------------9-------------2-0-------
   4|----------------------------------4-2--
 ) 5|---------------------------------------
   6|---------------------------------------
__/

como puedes ver el final uno y el dos tienen el mismo
numero de notas (seis) estos se tocan al mismo tiempo
por dos  requintistas  si lo tocas tu solo utilisa el 
que te paresca mas  agradable puedes tocarlos los dos 
al mismo tiempo con un poco de practica ok..

 Alguna duda o sujerencia, intercambios requintos de 
 los tres Reyes no duden en mandarme un e-mail.
 Gerardo Lee Calera Reynosa tamps. ( re5to@Latinmail.com)
		   
AcordesyTabs.com © 2008 Acordes y Tablaturas para guitarra. Tabs and Chords for guitar. Aviso Legal - Contacto
El uso de este sitio está sujeto a la aceptación de los términos y condiciones (23 usuarios online)