tablaturas, partituras y acordes para guitarra
Busca por banda/artista:
 
y/o título de la canción:
A B C D E F G H I J K L M N O P Q R S T U V W X Y Z 0 1 2 3 4 5 6 7 8 9 / Top 100 tabs
Categorías
Usuarios
usuario:
Darse de alta
password:
Artistas más visitados
Publicidad
TOP acordes y tablaturas de Jaguares


Tu
de Jaguares
Puntúa este acorde/tab:      
(0.6/5)
Reportar este acorde/tab
  Añadir a tus favoritos
  Imprimir
Esta es mi primera transcripción, espero q les guste y si hay 
alguna falla avisenme a mi mail..


Este es el intro, se toca sobre A tiene un efecto chequenlo en 
el disco, ésta es mi primera transcripción.
  
    A
e|--/14------12-------10-----9----|
B|----------------------------------|
G|----------------------------------|
D|----------------------------------|
A|----------------------------------|
E|----------------------------------|

  A	
e|----------------------------------|
B|----------------------------------|
G|--/11-------9-------7------6----|
D|----------------------------------|
A|----------------------------------|
E|----------------------------------|

Y empieza la rola con éste G y muteando las cuerdas cuando la 
bataka lo marca para q se oiga como en el disco y la guitarra 
dos va haciendo en el compas 2 y en el 5 los acordes con 
un poco de distor

    G
e|--3--|
B|--3--|
G|--4--|
D|--5--|
A|--5--|
E|--3--|

G 
Tierra
			  Bm
paciencia milenaria q me acecha
G
Mente 
			  Bm
perfecto laberinto hay q vencerte
E
Solo espero a q no te esfumes en el 

   F
   tiempo
e|----------------------------------|
B|-12----13--15--12----13--15--12---|
G|----------------------------------|
D|----------------------------------|
A|----------------------------------|
E|----------------------------------|


Am	   Am7	   F      C          G
Tu q cambiaste tu curso para vernos soñar
Am      Am7      F          C           G
Tu q vijaste desde el otro mundo hasta aqui
Am      Am7        F       C             G
Tu q dejaste tu estrella para sentir el mal
Am          Am       F       C            G
Tu q te quitaste las alas para vernos crecer
     F      Em
junto a ti


    A
e|--/14------12-------10-----9----|
B|----------------------------------|
G|----------------------------------|
D|----------------------------------|
A|----------------------------------|
E|----------------------------------|

G
fuerza
				Bm
los niños sobreviven no tienen miedo
G
rabia
			      Bm
ausente entre las velas de mi magia
E                                 
solo espero q terminemos la vida 

  F
 juntos               siempre
e|----------------------------------|
B|-12----13--15------12----13--15---|
G|----------------------------------|
D|----------------------------------|
A|----------------------------------|
E|----------------------------------|

SÓLO A DOS GUITARRAS
Guitarra 1

e|--------------------------------------------------|
B|-----------7*9*7--8----11^~-----9*8--7------------|
G|-------7-9------------------------9---------------|
D|----7-9-------------------------------9*8---7-7~--|
A|-/9--------------------------------------9--------|
E|--------------------------------------------------|
Guitarra 2
e|--------------------------------------------------|
B|--------------------------------------------------|
G|--------------------------------------------------|
D|--------------------------------------------------|
A|--------------------------------------------------|
E|--------------------------------------------------|


Guitarra 1
e|--------------------------------------------------|
B|---------10--------------------8--8-----8*9*8-----|
G|---------------------------7*9--------------------|
D|--------------------------------------------------|
A|--------------------------------------------------|
E|--------------------------------------------------|
Guitarra 2
	   /Toda esta parte es con el bend sostenido el numero
e|--------------------------------------------------|es el bend 
B|----8-9^(10)-(10-10-10-10-9*10 9 9----9-9*10*9-9)-|no el traste
G|---9------------------------------9 9-------------|el traste es
D|--------------------------------------------------|uno antes
A|--------------------------------------------------|
E|--------------------------------------------------|


Guitarra 1
e|-----------------12-12----------------------------|
B|-----------------17-17-------------7--8--10--7--12|
G|------------------------------7--9----------------|
D|--------------------------/9----------------------|
A|--------------------------------------------------|
E|--------------------------------------------------|
Guitarra 2
e|------15--14--------------------------------------|
B|---12--------15--17-17-----15^/-------------------|
G|--------------------------------------------------|
D|--------------------------------------------------|
A|--------------------------------------------------|
E|--------------------------------------------------|


Guitarra1
e|-------7-----7--10--9--7--12~~--|
B|--7*9-----9---------------------|
G|--------------------------------|
D|--------------------------------|
A|--------------------------------|
E|--------------------------------|
Guitarra2
e|--------------------------------|
B|--------------------------------|
G|--------------------------------|
D|--------------------------------|
A|--------------------------------|
E|--------------------------------|


Am	   Am7	   F      C          G
Tu q cambiaste tu curso para vernos soñar
Am      Am7      F          C           G
Tu q vijaste desde el otro mundo hasta aqui
Am      Am7        F       C             G
Tu q dejaste tu estrella para sentir el mal
Am          Am       F       C            G
Tu q te quitaste las alas para vernos crecer

Am      Am7          F       C            G
tuuuuuuuuuuuuu     (Arreglo de teclados)
Am      Am7          F       C            G
tuuuuuuuuuuuuu

A

  A
e|---/14------12-----------------|
B|--------------------------------|
G|--------------------------------|
D|--------------------------------|
A|--------------------------------|
E|--------------------------------|


Eso es todo, la rola está completa de principio a fin todo lo q 
hacen las guitarras, disfrutenla y para correcciones, sugerencias
y demás, escribanme a jcd_007@hotmail.com
<-----------------
		   
AcordesyTabs.com © 2008 Acordes y Tablaturas para guitarra. Tabs and Chords for guitar. Aviso Legal - Contacto
El uso de este sitio está sujeto a la aceptación de los términos y condiciones (22 usuarios online)