tablaturas, partituras y acordes para guitarra
Busca por banda/artista:
 
y/o título de la canción:
A B C D E F G H I J K L M N O P Q R S T U V W X Y Z 0 1 2 3 4 5 6 7 8 9 / Top 100 tabs
Categorías
Usuarios
usuario:
Darse de alta
password:
Artistas más visitados
Publicidad
TOP acordes y tablaturas de Joaquín Sabina


Noches de boda
de Joaquín Sabina
Puntúa este acorde/tab:      
(0.3/5)
Reportar este acorde/tab
  Añadir a tus favoritos
  Imprimir
INTRO
ESTE LO SAQUE DEL LA VERSION DE NOS SOBRAN LOS MOTIVOS
LOS ACORDES YA ESTAN EN OTRO ARCHIVO. ESPERO QUE
LES SUENE, SI ENCUENTRAN ALGUNA FALLA AGANMELO SABER

                          D             G
e------9----9--9--8--9---12---9--9---8--7-----
B---------------------------------------------
G---11---11---11--9--11--12--11--11--9--7-----
D---------------------------------------------
A---------------------------------------------
E---------------------------------------------
         Em       Am    D        G     
e--7--7--8--7--7--5--7--8--7--5--3------------
B---------------------------------------------
G--7--7--9--7--7--5--7--9--7--5--4------------
D---------------------------------------------
A---------------------------------------------
E---------------------------------------------
   G                                 
e---------------------------------------------
B----------8--7-------------------------------
G-------7--------9--7-------------------------
D--7/9V-----------------10--9-----------------
A---------------------------------------------
E---------------------------------------------
		   
AcordesyTabs.com © 2008 Acordes y Tablaturas para guitarra. Tabs and Chords for guitar. Aviso Legal - Contacto
El uso de este sitio está sujeto a la aceptación de los términos y condiciones (37 usuarios online)