tablaturas, partituras y acordes para guitarra
Busca por banda/artista:
 
y/o título de la canción:
A B C D E F G H I J K L M N O P Q R S T U V W X Y Z 0 1 2 3 4 5 6 7 8 9 / Top 100 tabs
Categorías
Usuarios
usuario:
Darse de alta
password:
Artistas más visitados
Publicidad
TOP acordes y tablaturas de Rata Blanca


Estás en: Inicio > Letra R > Acordes y tablaturas de Rata Blanca > Noche sin sueños
Noche sin sueños
de Rata Blanca
Puntúa este acorde/tab:      
(0.8/5)
Reportar este acorde/tab
  Añadir a tus favoritos
  Imprimir
Esta es una de las rolas que mas me gusta
Aquì les va

EL INTRO DA CON ESTOS 3 ACORDES
(Bm-A-D-A-Bm)*2
solo va con el ôrgano
   Bm          A-D          
A. La noche està   
              A       Bm-A-D-A
   murmurando con su brisa
   Bm        A-D
   habla de vos,
                 A     Bm-A-D-D4-D5
   me recuerdan tus caricias

   Em                              Bm-A-RIFF1
B. Son las noches que no paso a tu lado
   Em         
   que comprendo nena cuanto hay 
   Em  Bm  C    D
   en nuestro amor
        C           Bm
   que busca ser sagrado

EL SOLO VA CON ESTOS 3 ACORDES
Bm A D A Bm  como en la INTRO.
e|-------------------------9b-9-7-5h7p5--------------
B|------2h3s5-5s7-5s3s2----------------8h10p8/7------
G|-2s4-----------------2s4---------------------9b-9-7-6---
D|-----------------------------------------------------7/9--
A|---------------------------------------------------
E|---------------------------------------------------


AQUI VIENE LA PARTE
A. Quiero beber
   de tu esencia tan distinta
   y comprender
   lo que no tiene la mìa.

B. Romperè la noche gritando tu nombre
   hasta que mi voz te llegarà
   al corazòn
            D
C. Una canciòn
       G              RIFF2
   te busca apesar de todo
           D
   una canciòn
       G                 A
   te grita con toda su voz
  Em                                  Bm-RIFF3
   que quizas no tengas un hombre perfecto
   Em
   y que solo te podrà brindar
  F#m Em  D   Em
   todo su amor
                   Bm
   o si querès su vida

2 SOLO
e|--------------------------9b-9-10p9p7-----------------------
B|-0-5bv-5b-5p3-5b---------------------10-8-7-8p7-8s10b-10bvvv--------------------
G|----------------2h4p2-----------------------------------
D|---------------------0------------------------------
A|----------------------4-2v----------------------------
E|---------------------------------------------------

e|---12-12-9--------------------------------12b-12-10-12b-14-17-14-17-12vvv----------------
B|-10-------10--10-----------------------------------
G|------------9b--9b-9bvvv-6-7-6-7s9-7-6-2s4---------
D|---------------------------------------------------

AQUI SE REPITE DESDE 
ROMPERE LA NOCHE GRITANDO TU NOMBRE....ETC
TODO IGUAL

3 SOLO 
e|---------------------------------------------------
B|-10bb-10-8-----------------------7-8-10-----------------------
G|----------9bb--7-9-9b-9p7-9bp7---------9bb--------------------------
D|--------------9---------------9vv----------------------
A|---------------------------------------------------
E|---------------------------------------------------  

e|---12b-12-10p9--------12--------------------------------------
B|-10-----------10s12-10--14-10s12-10vvv----------------------------------
G|--------------------------------------12h14p12p11-11b------------
D|---------------------------------------------------
A|---------------------------------------------------
E|---------------------------------------------------

e|-------10----(10)---------------------------------------
B|-12-10b--10bb----10b-10------------------------------------------
G|-----------------------12-12-11(b)--------------------------
D|---------------------------------------------------
A|---------------------------------------------------
E|---------------------------------------------------  

e|---------------------------------------------------
B|----------------------------5-3p2-----5-3h5p3/2-3p2-------5-8-7vv------
G|-6-7p6-4---------------(4)-4-----2s4-4-------------2s4-/7------------
D|--------2h4p2-------------------------------------------
A|-------------4-2-------------------------------------
E|----------------5-3-2vv--------------------------------- 

e|---------------9-10-10p9-14b-14b-14b-14b-12--14b---------------------------
B|-8p7-8s10-10s12----------------------------15---10-----------------
G|---------------------------------------------------


e|--------5-7vvv---10vvv---------------------------------------
B|-8b*-8-7------10b------------------------------------------
G|----------------------(7p6-7-11)*2---10------------------------
D|----------------------(9p7-9-12)  -9b--9p7-9b-9b-9p7-9b--------------------
A|---------------------------------------------------
E|--------------------------------------------------- 
*este bend es progresivo

e|-17b-15-14vv-17b-15-14---------9b-9-7----------------------------------
B|----------------------17-15bf15------10bvvv-8b*-7vvv--------------------
G|---------------------------------------------------
D|---------------------------------------------------
A|---------------------------------------------------
E|---------------------------------------------------

e|----17---17---17---17-17-19-17vv-15h17p15p14----------------------------------
B|-17b--17b--17b--17b-------------------------17b-14h15p14-12-------------------
G|---------------------------------------------------
D|---------------------------------------------------
aqui esta hasta lo que pude escucharle...

RIFF1
D|----------
A|----5------
E|-5h7-7vvv---

RIFF2
D|----------------
A|--4/3-5-7vv------------
E|----------------

RIFF3
pm..........      D
G|-4-2-----------------------------
D|----4-2--------------------------
A|-------5-4-2-4---------------------
.
BUENO SÈ QUE ES MUY SIMPLE PERO HERMOSA
Y LA QUIERO DEDICAR A WENDY V.
TE AMO...
CUALQUIER SUGERENCIA ESCRIBAN
secodechivo@hotmail.com
		   
AcordesyTabs.com © 2008 Acordes y Tablaturas para guitarra. Tabs and Chords for guitar. Aviso Legal - Contacto
El uso de este sitio está sujeto a la aceptación de los términos y condiciones (23 usuarios online)