tablaturas, partituras y acordes para guitarra
Busca por banda/artista:
 
y/o título de la canción:
A B C D E F G H I J K L M N O P Q R S T U V W X Y Z 0 1 2 3 4 5 6 7 8 9 / Top 100 tabs
Categorías
Usuarios
usuario:
Darse de alta
password:
Artistas más visitados
Publicidad
TOP acordes y tablaturas de el Tri


Estás en: Inicio > Letra e > Acordes y tablaturas de el Tri > Nostalgia
Nostalgia
de el Tri
Puntúa este acorde/tab:      
(0.4/5)
Reportar este acorde/tab
  Añadir a tus favoritos
  Imprimir
Intro:
1/-------------------/---------------------------------/
2/-----6-5-----------/---------------------------------/
3/----------7--5--7^9/-------7--5--7--5----------------/
4/--7----------------/-7--8--------------8--7--5--7h8h7/
5/-------------------/---------------------------------/
6/-------------------/---------------------------------/

/-------8-10---12-13-12/-------8-10-8-------------/
/10-11-----------------/10-11---------11-10-8-6-5-/
/----------------------/--------------------------/
/----------------------/--------------------------/
/----------------------/--------------------------/
/----------------------/--------------------------/

     D-       A-       
Es la nostalgia
       D-       A-
de fin de siglo
       D-          A-    
y se vuelven a oir las rolas 
        D-      A-
de los beatles
        Bb
de elvis de Janis 
    F
de Hendrix
      G-        A7
de Morrison y de Lennon


Coro:
                D-         
Y esque es la nostalgia 
  Bb         C 
De fin de siglo 
 D-             
y todo el mundo quisiera 
  Bb              C
el tiempo poder regresar
  D-                 
y revivir los recuerdos 
Bb                 C
y los buenos tiempos 
 D-   
porque recordar es vivir 
Bb                  A7
y todos queremos vivir mas

          D-    A-
Es la nostalgia 
         D-      A-
De fin de siglo
                D-
se vuelve a poner de moda 
         A-      
la ideologia 
    D-          A-
del Che Guevara
            Bb        
y todos quieren ser rebeldes 
F         
y contestatarios 
 G-                A7
anarquistas y revolucionarios 

Coro

          D-     A-
Es la nostalgia
         D-        A-
de fin de siglo 
        D-     
y los hijos se rebelan 
     A-
contra los padres 
        D-      
como los padres lo hicieron
     A-
con los abuelos 
        Bb
con la misma actitud 
             F
las mismas fachaaas
            G-
las mismas causas 
                   A7
y hasta la misma musica
		   
AcordesyTabs.com © 2008 Acordes y Tablaturas para guitarra. Tabs and Chords for guitar. Aviso Legal - Contacto
El uso de este sitio está sujeto a la aceptación de los términos y condiciones (38 usuarios online)