tablaturas, partituras y acordes para guitarra
Busca por banda/artista:
 
y/o título de la canción:
A B C D E F G H I J K L M N O P Q R S T U V W X Y Z 0 1 2 3 4 5 6 7 8 9 / Top 100 tabs
Categorías
Usuarios
usuario:
Darse de alta
password:
Artistas más visitados
Publicidad
TOP acordes y tablaturas de Silvio Rodriguez


Tu Fantasma
de Silvio Rodriguez
Puntúa este acorde/tab:      
(0.6/5)
Reportar este acorde/tab
  Añadir a tus favoritos
  Imprimir
Antes de entrar al asunto de la canción me gustaría hacer algunos 
comentarios. En primer lugar tengo que aclarar que este es mi primer 
tabulado, por lo que pese a que traté de ser lo más exacto posible quizá 
tenga bastantes errorcillos por ahí, espero me comprendan pues tengo  
poco tiempo de tocar la guitarra y como que aun no tengo un oído muy 
educado para este tipo de cosas, además la lírica de Silvio es de palabras
mayores y por ende muy complicada, aunque esta canción creo que es de las 
menos complicadas que tiene.
Ahora me gustaría mencionar la razón que me motivó a realizar este trabajo, 
esta razón está siempre en mi mente y significa todo para mí , ella es mi 
novia, una morenita de nombre Carmen quién les juro es la niña más linda 
del mundo...
A tí te dedico esta canción (mi favorita) y todos mis esfuerzos pequeña....
Te amo...       


Acordes


Cm=335543
Cm7=335343
Dsus4=xx0233
D/F#=200232
F=133211
G=320003
G4=320013
G+9=320203
A#=113331
Am=002210
Am7=002010
G/D#=321003
G/E=322003 
G/F=323003 
G/F#=324003


*** Intro ***                                                          

E|------------------|------------------|------------------|------------------|1
B|------0-----------|--------0------0--|-------0----0-----|------------------|2
G|------------------|---0--------------|---0-----0----0---|------2-----2-----|3
D|----0-------------|------0-----0-----|-----0-----0----0-|--3--------0------|4
A|------------------|------------------|------------------|------------------|5
E|--3---------------|--3---------------|--3---------------|----1-----2-------|6
       
    G                                                        F       D/F# 

E|------------------|------------------|------------------|------------------|1
B|--------0---0-----|----------0-------|---------0--------|------------------|2
G|-0-0------0-------|------0-----------|-----0------------|-------2------2---|3
D|-0----0-----------|-----0--0---------|----0--0----0-----|-----3-------0----|4
A|------------------|----2-------------|---2----------2---|------------0-----|5
E|-3----------------|-3----------------|-3----------------|-3--1-----2-------|6

   G                                                        F        D/F#

                                                         Me   decidoatararearte
                                                                                    
E|------------------|------------------|------------------|------------------|1
B|-0------0---0-----|----------0-------|---------0--------|------------------|2
G|-0-0------0-------|------0-----------|-----0------------|-----2----------2-|3
D|-0----0-----------|-----0--0----0----|-------0----------|---3-----------0--|4
A|------------------|----2----------2--|---2--------------|-------------0----|5
E|-3----------------|-3----------------|-3----------------|-1---------2------|6

   G                                                        F         D/F#

todoloqueseteextraña,                                    desdeelsigloenquepartiste 
   
E|------------------|------------------|------------------|------------------|1
B|-0-------0--------|--2p0------0------|-0------0---------|------------------|2
G|-0--0------0------|-------0-----0----|-0-0------0-------|-------2---------2|3
D|-0-----0------0---|---------0-----0--|-0----0-----0-----|------3---------0-|4
A|------------------|------------------|------------------|---------------0--|5
E|-3----------------|-------3----------|-3----------------|-----1-------2----|6

   G                   G4   G                                   F       D/F#


  hastaellargodíadehoy                                         meacompañodeguitarra
  
E|------------------|------------------|------------------|------------1-----|1
B|-0------0---------|-1p0--------0-----|------4-----4-----|--------1-----1---|2
G|-0-0------0-------|------0---0---0---|--------3-----3---|----------2-----2-|3
D|-0----0-----0-----|--------0-------0-|----5-----5-----5-|------3-----------|4
A|------------------|------------------|--3---------------|------------------|5
E|-3----------------|------3-----------|------------------|----1-------------|6

   G                  G4   G              Cm7                  F      

porqueyonosede cartas                                                              y

E|------------------|------------------|------------------|------------3-----|1
B|--------3-----3---|------------------|----------0-------|---------4----4---|2
G|----------3-------|-----------0------|------------------|-------3---3----3-|3
D|------3-----3-----|---------0--------|--------0---------|------------------|4
A|----1-------------|--1h3-0-----------|------------------|----/3------------|5
E|------------------|------------------|--5p3-2-----------|--0---------------|6

     A#                                                         Cm7                 

ademásyatúconoces     queellavadondeyovoy

E|----------1-------|------------------|------------------|------------------|1
B|------1-----1-----|----------3-------|------------------|-----------0------|2
G|--------2-----2---|--------3---------|-----------0------|------------------|3
D|----3-------------|------3-----------|---------0--------|---------0--------|4
A|------------------|---1--------------|--1h3-0-----------|------------------|5
E|--1---------------|------------------|------------------|--5p3-2-----------|6

   F                   A#

                      Lo únicoqueme consuela                    esqueusodoslamohadas

E|-------------3----|------------------|------------------|--------3---------|1
B|---------0-----0--|-----------1------|--------3---------|---0------0-----0-|2
G|-----------0-----0|-----------2------|--------2---------|---0--------0-----|3
D|-------0----------|--------3-----3---|------0----0------|------0-----------|4
A|------------------|------------------|------------------|------------------|5
E|-0h2-3------------|------1-----------|----2-------------|---3--------------|6

       G                   F                D/F#              G


                                       Yqueyano me torturo                    cuan

E|--------------3---|------------------|------------------|------------------|1
B|-1p0--0-----0-----|-----------0------|----------1-------|----3-------------|2
G|------0---0-----0-|------0------0----|----------2-------|----2-------------|3
D|--------0---------|---------0-----0--|-------3-----3----|--0----0----------|4
A|------------------|----2-------------|------------------|------------------|5
E|------3-----------|--3---------------|-----1------------|-2----------------|6

   G4   G                                    F              D/F#      

    do tehagotrasnochar                                                     otroalivio

E|--------3---------|--------------3---|---3---3-------3--|----------3-------|1
B|---0------0-------|-1p0--0-----0-----|---0---0-------0--|-------4----4-----|2
G|---0--------0-----|------0---0-------|---0-----------0--|-----3---3----3---|3
D|------0-----------|--------0---------|------------------|---5--------------|4
A|------------------|------------------|------------------|3-----------------|5
E|---3--------------|------3-----------|------------------|------------------|6

     G                G4   G                               Cm7  

 es que en suárbol    lospajaritosdelalba

E|-----------1------|-----------1------|------------------|------------------|1
B|-------1-----1----|-------3-----3----|------------------|-----------0------|2
G|-----2---2-----2--|-----3---3-----3--|------------0-----|------------------|3
D|------------------|---3--------------|----------0-------|---------0--------|4
A|------------------|1-----------------|---1h3-0----------|------------------|5
E|---1--------------|------------------|------------------|--5p3-2-----------|6

     F                A#

                   siguen ensayando el  coro                     conquetebienveniran

E|------------------|------------------|------------------|-------3----------|1
B|-----------0------|------------1-----|--------3---------|--0------0----0---|2
G|---------0---0----|------------2-----|--------2---------|--0--------0------|3
D|-------0-------0--|----------3-------|------0----0------|-----0------------|4
A|------------------|------------------|------------------|------------------|5
E|-0h2-3------------|--------1---------|---2--------------|--3---------------|6

       G                     F             D/F#              G

                                                       Elteléfono persiste en colec    
                                          
                                                    ...embromarme sigue siendo  un 

                                                ...ylapuertaesta comida...

                                                    ...el cine de enamorados  tuvo...      

E|--------------3---|--3--3--3-3-------|----0-0-0-0-0-0-0-|----2-2-2-2-2-2-2-|1
B|-1p0--0-----0-----|--0-----0-0-------|----1-1-1-1-1-1-1-|----3-3-3-3-3-3-3-|2
G|----------0-------|--------0-0-------|----0-0-0-0-0-0-0-|----2-2-2-2-2-2-2-|3
D|--------0---------|------------------|----2-2-2-2-2-2-2-|----0-0-0-0-0-0-0-|4
A|------------------|------------------|-0----------------|------------------|5
E|------3-----------|------------------|------------------|--2---------------|6
        
   G4   G                                 Am7                D/F#

cionarabsurdos…

deporteuniversal…

E|---3-3-3-3-3-3-3--|---3-3-3-3-3-3-3--|1
B|---0-0-0-0-0-0-1p0|---0-0-0-0-0-0-0--|2
G|---0-0—0—0-0-0-0--|---0-0-0-0-0-0-0--|3
D|---0-0-0-0-0-0----|---0-0-0-0-0-0-0--|4
A|------------------|-2----------------|5
E|3-----------------|-3----------------|6

   G           G4     G   

dondelahagolpeadoelmundo…

...gueactivoporsubar

E|---------3-3-3-3-3|---------------3--|-3-3-3-3~---------|1
B|---------0-0-0-0-0|---1p0--------0---|-0-0-0-0~---------|2
G|-------0---0-0-0-0|---0---2p0---0----|-0-0-0-0~---------|3
D|-----0------------|-------0----------|------------------|4
A|------------------|------------2-----|------------------|5
E|---3--------------|-----------3------|------------------|6

     G                  G4 Dsus4 G

       ...cuandomenosunabuenaparte de la humanidad

E|--0-0-0-0-0-0-----|---1-1-1----2-2-2-|---3-3-3----3-----|---3-3-3-3-3-3----|1
B|--1-1-1-1-1-1-----|---1-1-1----3-3-3-|---0-0-0----1p0---|--0--0-0-0-0-0----|2
G|--0-0-0-0-0-0-----|---2-2-2----2-2-2-|---0-0-0----0-----|-0---0-0-0-0-0----|3
D|--2-2-2-2-2-2-----|---3-3-3----0-0-0-|---0-0-0----------|------------------|4
A|0-----------------|------------------|----------2-------|2-----------------|5
E|------------------|-1--------2-------|-3--------3-------|3-----------------|6

  Am7                 F       D/F#       G          G4     G

unpardebuenaspistas                                  nuestrocabaretprivado         si-

                                                     se nos sigue desangrando...

E|---3-3-3-3-3-3-3--|-----3--3-3-3-3---|--------0-0-0-0-0--|-------2-2-2-2-2-|1
B|---0-0-0-0-0-0-1p0|----0---0-0-0-0---|--------1-1-1-1-1--|-------3-3-3-3-3-|2
G|---0-0—0—0-0-0-0--|---0----0-0-0-0---|------0---0-0-0-0--|-----2---2-2-2-2-|3
D|---0-0-0-0-0-0----|------------------|-----2----2-2-2-2--|-----------------|4
A|------------------|--2---------------|----0--------------|-----------------|5
E|3-----------------|-3----------------|2h3----------------|-0-2-------------|6

  G              G4   G                      Am7               D/F#

lallavedelacocina                                                yyosigosincanciones

E|-------3-3-----3-3|-----3-3------3-3-|-----3-3----------|-0-0-0-0-0---3-3-3|1
B|------------------|------------------|---------------1--|-1-1-1-1-1---4-4-4|2
G|------0-0-----0-0-|----0-0------0-0--|----0-0----------0|-0-0-0-0-0---3-3-3|3
D|-----------1~-----|-2~-------3~------|-4~-----------2---|-2-2-2-2-2---5-5-5|4
A|------------------|------------------|-----------0------|------------3-----|5
E|-2-3--------------|------------------|------------------|------------------|6

     G      G/D#     G/E      G/F      G/F#        Am7                Cm7

   habiendonecesidad…..
 
E|------------------|1
B|----------0-------|2
G|-2-----2--0-------|3
D|-3-----0--0-------|4
A|-3-----0----------|5
E|-1---2----3-------|6

   F   D/F# G  

(En esta parte el rasgueo debe ser impetuoso)   

*** Interlude ***

E|-3----------3-3-3-|3-3------0-0-0-0-0|---------2-2--2-2-|-------------3-3--|1
B|-1h0------0-0-0-0-|0-0------1-1-1-1-1|---------3-3--3-3-|---------0--------|2
G|-0-------0----0-0-|0-0------0-0-0-0-0|---------2-2--2-2-|---------0--0-0---|3
D|-0------0-------0-|0-0------2-2-2-2-2|-------0-0-0--0-0-|-------0-0--------|4
A|-----2------------|-------0----------|-------0-0--------|-------2----------|5
E|-----3------------|----2h3-----------|-0h3-2-2----------|-0h2-3-3----------|6

  G4   G                     Am7             D/F#               G                  

E|-----3-3------3-3-|-----3-3------3-3-|----------0-0-0-0-|-------1-----2----|1
B|------------------|------------------|-----1----1-1-1-1-|-------1-----3----|2
G|----0-0------0-0--|----0-0------0-0--|-------0--0-0-0-0-|-------2-----2----|3
D|-1~-------2~------|-3~-------4~------|----2-----2-2-2-2-|-------3-----0----|4
A|------------------|------------------|-0--------0-0-0-0-|-0-----3-----0----|5
E|------------------|------------------|------------------|--h2-1-1-1-2-2-2-3|6

  G/D#     G/E       G/F      G/F#       Am7                    F    D/F#


E|---3---3~----3----|--------3---3~----|3-----------3---3~|---3------------3~|1
B|---1p0-0~----0h1-0|--------1p0-0~----|0h1-0-------1p0-0~|---0h1—0-0------0~|2
G|---0---0~----0---2|p0------0---0~----|0---2p0-----0---0~|---0---2-0------0~|3
D|-----------0-0---0|------------------|----0-------------|-------0-0-0-0--0~|4
A|-2---------2-----0|----2-----------2-|----0---2---------|-2-----0-0-2-2----|5
E|-3---------3------|----3-3---------3-|--------3-3-------|-3---------3-3----|6

   G G4  G     G4  G+9   G   G4  G      G4 G+9  G   G4  G      G4 G+9 G  
 

E|------3-3-3--3-3~-|1
B|----0-0-0-0--0-0~-|2
G|----0---0-0----0~-|3
D|--0---------------|4
A|------------------|5
E|-3----------------|6

   G  


Pueden sercasualidades  u otras rarezas que pasan,                              pero    

E|---------------2-2|2---------3-------|-------3-------3-3|3-3-3~---3-3-3~--3|1
B|---------1-----3-3|3--------0--------|-------1p0------0-|0-0-0~----0--0~--0|2
G|---------2-----2-2|2------0----------|-------0------0---|--0-----0----0~--0|3
D|-------3-------0-0|0-----0-----------|-------0-----0----|------------------|4
A|-----3------------|-----2------------|-----------2------|------------------|5
E|--1--------1-2----|---3--------------|-----------3------|-------3----------|6

    F          D/F#     G                     G4   G       

  donde  quieraqueando          todomeconduce a ti                               especial_

E|3~-3-3-----1-1-1--|--2-2-2-----------|3--------------3-3|3-3-3--------3-3-3|1
B|0~-0-0-----1-1-1--|--3-3-3--------0~-|0-----------0--0-0|0-0-0-----4--4-4-4|2
G|0~-0-0-----2-2-2--|--2-2-2------0----|----------0--0-0-0|0-0-0----3-3-3-3-3|3
D|-----------3-3-3--|--0-0-0----0--0---|---------0-0------|--------5---------|4
A|------------------|------------2-----|------------------|------3-----------|5
E|---------1--------|2--------3--------|--------3---------|------------------|6

           F        D/F#      G                                  Cm7

  mente la casa       me resulta insoportable        

E|---------1-1-1~---|----------1-1-1---|------------------|------------------|1
B|---------1-1-1~---|-------3--3-3-3---|------------------|-----------0------|2
G|------2--2-2-2~---|-----3----3-3-3---|------------0-----|------------------|3
D|-----3------------|---3--------------|----------0-------|---------0--------|4
A|----3-------------|1-----------------|---1h3-0----------|------------------|5
E|--1---------------|------------------|------------------|--5p3-2-----------|6

     F                A#

                       cuandodesdesus rincones      te abalanzas sobre mí

E|-----------3-3-3~-|-3----------------|------------------|--------3-3-3~----|1
B|-----------0-0-0~-|-0----------1-----|--------3---------|--------0-0-0~----|2
G|---------0-0-0-0~-|-0----------2-----|--------2---------|------0-0-0-0~----|3
D|--------0---------|----------3-------|------0----0------|-----0------------|4
A|-------2----------|------------------|------------------|----2-------------|5
E|-0h2-3------------|--------1---------|-1-2--------------|2-3---------------|6

       G                     F             D/F#              G

                                                      No exagero si te cuento     que

                                                   ...que le solicito agua       y hasta

                                                   ...en días gravesle he pedido

                                                      Hay días que en tu sacrificio...

                                                   ...pero donde iba el delirio no oigo...

                                                      Siempre termino en lo mismo...

                                                      Ya  no sé si lo que digo   real_

                                                   ...hoy no es día inteligente, y ni sé 

                                                   ...pero cuando puedas vuelve, porque    

E|--------------3---|--3--3--3-3~------|----0-0-0-0-0-0-0-|----2-2-2-2-2-2---|1
B|-1p0--0-----0-----|--0-----0-0~------|----1-1-1-1-1-1-1-|----3-3-3-3-3-3---|2
G|----------0-------|--------0-0~------|----0-0-0-0-0-0-0-|----2-2-2-2-2-2---|3
D|--------0---------|------------------|----2-2-2-2-2-2-2-|----0-0-0-0-0-0---|4
A|------------------|------------------|-0----------------|0-----------------|5
E|------3-----------|---------------2h3|------------------|--2------------0h2|6

  G4    G                             G  Am7                 D/F#               
 
 le hablo a tu fantasma...

...acaricio tu fantasma

...asesino a tu fantasma...

...mente nos hace falta...

E|---------3-3-3-3-3|----------------3-|-3-3-3-3~---------|1
B|---------0-0-0-0-0|-1p0----------0-0-|-0-0-0-0~---------|2
G|-------0---0-0-0-0|-0---0~------0----|-0-0-0-0~---------|3
D|-----0------------|-0---0~-----------|------------------|4
A|------------------|-----2~-----2-----|------------------|5
E|--3~--------------|---------3~-------|------------------|6

    G                 G4 G  
 
...el buche de café...

E|---------3-3-3-3-3|------3-3-3-3-3-3-|1
B|---------0-0-0-0-0|----0-0-0-0-0-0-0-|2
G|-------0---0-0-0-0|----0-0-0-0-0-0-0-|3
D|-----0------------|----0-0-0-0-0-0---|4
A|------------------|----2---2-2-2-2---|5
E|--3~--------------|-3~-------3-3-3---|6

    G

...masajesparamiespalda...     

...tu respiración...     

...ir más alla;...   

...acecha tu fantasma,...	      

E|----------3~-3-3--|---0---0--------3-|-3-3-3-3~---------|1
B|----------0~-0----|---1p0-0-------0--|-0-0-0-0~---------|2
G|-------0--0~------|---0---2p0----0---|-0-0-0-0~---------|3
D|------0-----------|-------0-----0----|------------------|4
A|-----2------------|-----------2------|------------------|5
E|--3~--------------|-----------3------|------------------|6

     G                  G4 Dsus4 G

        ... los peores ni te cuento, porque no vasacreer

        ... y la diana me sorprende recostadoen el balcón...

        ... jugando a lasescondidas y yo estoy muyviejoya...

E|------0-0-0-0-0-0-|---1-1-1----2-2-2-|---3-3-3----3-----|---3-3-3-3-3-3----|1
B|------1-1-1-1-1-1-|---1-1-1----3-3-3-|---0-0-0----1p0---|--0--0-0-0-0-0----|2
G|------0-0-0-0-0-0-|---2-2-2----2-2-2-|---0-0-0----0-----|-0---0-0-0-0-0----|3
D|------2-2-2-2-2-2-|---3-3-3----0-0-0-|---0-0-0----------|------------------|4
A|----0-------------|------------------|----------2-------|2-----------------|5
E|2h3---------------|0-1--------2------|-3--------3-------|3-----------------|6

  Am7                 F       D/F#       G          G4     G


        ...pero cuando puedas vuelve, porque acecha   tu fantasma

E|---0---0-0-0-0-0-0|----2-2-2-2-2-2-2-|--------3--3-3----|-----3-3------3-3-|1
B|---0h1-1-1-1-1-1-1|----3-3-3-3-3-3-3-|--------0---------|------------------|2
G|---0---0-0-0-0-0-0|----2-2-2-2-2-2-2-|--------0-0-0-----|----0-0------0-0--|3
D|---0h2-2-2-2-2-2-2|----0-0-0-0-0-0-0-|------------------|-1~-------2~------|4
A|---0--------------|0-----------------|------------------|------------------|5
E|2h3---------------|--2---------------|--0h2-3-----------|------------------|6

    G Am7              D/F#                   G            G/D#     G/E               

                                  jugando alasescondidas, y yo estoy muy viejo 

E|-----3-3------3-3-|----------0-0-0-0-|0-0----3-3-3----1-|---2----3~-|1
B|------------------|-----1----1-1-1-1-|1-1----4-4-4----1-|---3----0~-|2
G|----0-0------0-0--|-------0--0-0-0-0-|0-0----3-3-3----2-|---2----0~-|3
D|-3~-------4~------|----2-----2-2-2-2-|2-2----5-5-5----3-|---0-------|4
A|------------------|-0--------0-0-0-0-|0-0--3~---------3-|---0-------|5
E|------------------|------------------|-------------1~-1-|2~---3~----|6

  G/F      G/F#       Am7                   Cm7      F     D/F# G



*** Outro ***

ya…

E|-----3-3------3-3-|-----3-3------3-3-|----------0-0-0-0-|-----1~-----2~-----|1
B|------------------|------------------|-----1----1-1-1-1-|-----1~-----3~-----|2
G|----0-0------0-0--|----0-0------0-0--|-------0--0-0-0-0-|-----2~-----2~-----|3
D|-1~-------2~------|-3~-------4~------|----2-----2-2-2-2-|-----3~-----0~-----|4
A|------------------|------------------|-0--------0-0-0-0-|-----3~-----0~-----|5
E|------------------|------------------|------------------|-0~1-1~-1~2-2~-2-3-|6

  G/D#     G/E       G/F      G/F#       Am7                    F    D/F#


E|---3---3~----3---0|--------3---3~----|3---0-------3---3~|-----3---0--------|1
B|---1p0-0~----0h1-0|--------1p0-0~----|0h1-0-------0h1-0~|-----1p0-0--------|2
G|---0---0~----0---2|p0------0---0~----|0---2p0-----0---0~|-----0---2p0--0~~-|3
D|-------------0---0|------0-----------|----0-----0-------|-----0---0----0~~-|4
A|-----------2-----0|----2-2----------2|----0---2-2-------|-2-2-----0----2~~-|5
E|-3---------3------|----3-3-------3--3|--------3-3-------|-3-3----------3~~-|6
             *           *         *            *           * *
   G G4  G     G4  G+9   G   G4  G      G4 G+9  G   G4  G      G4 G+9 G  


*en estas partes se deben tocar las cuerdas indicadas al miso tiempo que se da un
 golpe suave con las uñas al borde del brazo de la guitarra (la parte que esta aun
 en la caja y que contiene los trastes 13, 14, 15....)


La canción no es tan complicada y es solo cuestión de escucharla bien para
agarrar el ritmo exacto del rasgueo, disfrútenla y diviértanse, y ya saben,
cualquier duda, comentario o aclaración, no duden en escribirme  a dobered82@hotmail.com



...Esto es extra y quizá para muchos cursi, pero no me importa lo que piensen, 
además ni les pregunte =P jejeje...no, no se crean, pero si me gustaría aprovechar
para aclararle a mi novia que yo la amo más jejejeje =P...


Cogito ergo sum....
		   
AcordesyTabs.com © 2008 Acordes y Tablaturas para guitarra. Tabs and Chords for guitar. Aviso Legal - Contacto
El uso de este sitio está sujeto a la aceptación de los términos y condiciones (25 usuarios online)