tablaturas, partituras y acordes para guitarra
Busca por banda/artista:
 
y/o título de la canción:
A B C D E F G H I J K L M N O P Q R S T U V W X Y Z 0 1 2 3 4 5 6 7 8 9 / Top 100 tabs
Categorías
Usuarios
usuario:
Darse de alta
password:
Artistas más visitados
Publicidad
TOP acordes y tablaturas de Hamlet


Estás en: Inicio > Letra H > Acordes y tablaturas de Hamlet > Tu medicina
Tu medicina
de Hamlet
Puntúa este acorde/tab:      
(0.5/5)
Reportar este acorde/tab
  Añadir a tus favoritos
  Imprimir
 GRUPO: Hamlet
 DISCO: Insomnio
 TEMA : Tu Medicina
 Instrumento  : Bajo
 Tabulado por : Mikel Rojo (MIKEROJO@teleline.es)



	Tabulaciones del bajo (Aunque en la foto del disco tenga un bajo de cinco
   cuerdas sólo usa las cuatro más gruesas. Esto es porque como usa una afinación
   cuatro semitonos más baja de la estándar, necesita cuerdas más gruesas para que
no se queden muy sueltas y las desplaza a la próxima más gruesa ignorando la más fina.)


	Afinada como en todo el disco de 'Insomnio': Cuatro semitonos más abajo

1. muchas veces
D# |--------------------------------------------------------------------------------|
A# |------------7-----------------------8--------------7----------------------------|
F  |---0--0--0-----0--3/5--5--5--6--6------6--0--0--0-----0--3/5--5--5--6--6--5--3--|
C  |--------------------------------------------------------------------------------|

2. x8 (cuando Molly dice 'Esta Canción')
D# |---------------------------------------------------|
A# |---------------------------------------------------|
F  |------------7-----------5--------------------------|
C  |---0--0--0-----0--0--0-----0--0--0--1--1--1--1--1--|

3. x4 (la cuarta vez sin la última nota)
D# |------------------|
A# |------------------|
F  |------------------|
C  |---1--1--1--1--0--|

4. varias veces (esto es justo después de cuando se queda la guitarra sola)
D# |-------------------------------------------------|
A# |-------------------------------------------------|
F  |---7/6--7--7--7/6--7--7--7/6--7--7--7/8--8--8----|
C  |-------------------------------------------------|

5. últimas cuatro
D# |-------------------------------------------------|
A# |---9/8--9--9--9/8--9--9--9/8--9--9--9/10-10--10--|
F  |---7/6--7--7--7/6--7--7--7/6--7--7--7/8---8---8--|
C  |-------------------------------------------------|



------> Podeis mandar vuestras sugerencias a madesmania.com
		   
AcordesyTabs.com © 2008 Acordes y Tablaturas para guitarra. Tabs and Chords for guitar. Aviso Legal - Contacto
El uso de este sitio está sujeto a la aceptación de los términos y condiciones (37 usuarios online)