tablaturas, partituras y acordes para guitarra
Busca por banda/artista:
 
y/o título de la canción:
A B C D E F G H I J K L M N O P Q R S T U V W X Y Z 0 1 2 3 4 5 6 7 8 9 / Top 100 tabs
Categorías
Usuarios
usuario:
Darse de alta
password:
Artistas más visitados
Publicidad
TOP acordes y tablaturas de Hamlet


Estás en: Inicio > Letra H > Acordes y tablaturas de Hamlet > Tu medicina
Tu medicina
de Hamlet
Puntúa este acorde/tab:      
(0.3/5)
Reportar este acorde/tab
  Añadir a tus favoritos
  Imprimir

NOTACION

h= hammer on
p= pull off
s= slide
>= mantener el sonido
AD= apagado de diapasón
PM= palm muted (si va seguido de una línea de puntos hacerlo
hasta donde termine la línea de puntos)

------------------------------------------------------------
------------------------------------------------------------


-----
VERSO
-----


1) (Y sin embargo nosotros estamos vendidos...)


-----------------------------------------------
-----------0--0--------------------------------
-----------------------------------------------
--2--2--2--------2--2--3--3--3--3--5--5--3--2--
-----------------------------------------------
-----------------------------------------------
  PM.....        PM..........................


2) 


[Con efectos]
--------------------------
--5s17s11s10--11s12s17s5--
-------------------------- (x4)
--------------------------
--------------------------
--------------------------


-------
VERSO 2
-------


1) (Otra misiva activa y pasiva...)


Guitarra 1
----------

Tocar lo mismo que en la parte 3 de Verso 1


Guitarra 2
----------

--------4----4--------
-----4----------4-----
--4----------------4-- (x2)
----------------------
----------------------
----------------------
  AD................


2) (Y creando, e ignorando, y con el mazo...) (x8)


Guitarra 1
----------

-----------------------------------------------
-----------0--0--------------------------------
-----------------------------------------------
-----------------------------------------------
-----------------------------------------------
--0--0--0--------0--0--1--1--1--1--3--3--1--0--
  PM.....        PM..........................


Guitarra 2
----------

---------------------------------------------
-----------0--0------------------------------
---------------------------------------------
---------------------------------------------
---------------------------------------------
--0--0--0--------0--0--3s5--5--5--5s6--6--6--
  PM.....        PM........................


--------
CHORUS 1
--------


1) (De ilusión, puedes estar seguro...) (x4)


---------------------------------------------
---------------------------------------------
-----------4--4------------------------------
-----------2--2------------------------------
-----------------------5s7--7--7--7s8--8--8--
--0--0--0--------0--0--3s5--5--5--5s6--6--6--
     PM..        PM..       PM..       PM..


2) (Y a quién más debo pedir permiso...) (x2)


---------------------------------------------
---------------------------------------------
-----------4--4------------------------------
-----------2--2------------------------------
-----------2--2------------------------------
--0--0--0--------0--0--3s5--5--5--5s6--6--6--
     PM..        PM..

-------------------------------------------
-------------------------------------------
-----------4--4----------------------------
-----------2--2----------------------------
-----------2--2-------------------0h1p0h1--
--0--0--0--------0--0--3s5--5--5-----------
     PM..        PM..       PM.. 


3) (x4)


--0>--1--1--1--1--
--0>--1--1--1--1--
------------------
--2>--3--3--3--3--
--2>--3--3--3--3--
--0>--1--1--1--1--


--------
CHORUS 2
-------- 


1) (Esta canción no es ningún tópico, ¿vale?,...) (x4)


------------------------------------------------------
------------------------------------------------------
------------9---------7---------10--10--10--10--10s9--
------------9---------7----------8---8---8---8---8s7--
------------7---------5----------8---8---8---8---8s7--
--0--0-0-0-----0-0-0-----0-0-0------------------------
     PM...     PM...     PM...


2) (Y así estamos y pasarán mil años...)


------------------------------------------------------
------------------------------------------------------
--------------------------------10--10--10--10--10s9-- (x3)
------------9---------7----------8---8---8---8---8s7--
------------7---------5----------8---8---8---8---8s7--
--0--0-0-0--7--0-0-0--5--0-0-0------------------------
     PM...     PM...     PM...

--------------------------------------------
--------------------------------1--1--1--1--
--------------------------------------------
------------9---------7---------3--3--3--3--
------------7---------5---------3--3--3--3--
--0--0-0-0--7--0-0-0--5--0-0-0--1--1--1--1--
     PM...     PM...     PM...


--0>--1--1--1--1--
--0>--1--1--1--1--
------------------ (x4)
--2>--3--3--3--3--
--2>--3--3--3--3--
--0>--1--1--1--1--


-----
FINAL
-----


1) [Con flanger]


--------------------------------------------------
--------------------------------------------------
--------------------------------------------------
--2--1--1--1--2--1--1--1--2--1--1--1--2--3--3--3--
--------------------------------------------------
--------------------------------------------------
  PM............................................

---------------------------------------------------
---------------------------------------------------
---------------------------------------------------
--2--1--1--1--2--1--1--1--2--1--1--1--1h2h3--3--3--
---------------------------------------------------
---------------------------------------------------
  PM.............................................

---------------------------------------------------
---------------------------------------------------
---------------------------------------------------
--2--1--1--1--2--1--1--1--2--1--1--1--1h2h3--3--3--
---------------------------------------------------
---------------------------------------------------
  PM.............................................

-----------------------------------------------
-----------------------------------------------
--------------------------------------------0--
--2--1--1--1--2--1--1--1--2--------------0-----
-----------------------------0--0--0--0--------
-----------------------------------------------
  PM.......................


2) (Prueba tu medicina...)


                                                     (x4)
---------------------------------------------------------
---------------------------------------------------------
--9--8--9--9--9--8--9--9--9--8--9--9--9--10--10--10--10--
--9--8--9--9--9--8--9--9--9--8--9--9--9--10--10--10--10--
--7--6--7--7--7--6--7--7--7--6--7--7--7---8---8---8---8--
---------------------------------------------------------

                                                     (x4)
---------------------------------------------------------
---------------------------------------------------------
--9--8--9--9--9--8--9--9--9--8--9--9--9--10--10--10--10--
--9--8--9--9--9--8--9--9--9--8--9--9--9--10--10--10--10--
--7--6--7--7--7--6--7--7--7--6--7--7--7---8---8---8---8--
--7--6--7--7--7--6--7--7--7--6--7--7--7---8---8---8---8--

------
------
--9>--
--9>--
--7>--
--7>--


------------------------------------------------------------
------------------------------------------------------------
		   
AcordesyTabs.com © 2008 Acordes y Tablaturas para guitarra. Tabs and Chords for guitar. Aviso Legal - Contacto
El uso de este sitio está sujeto a la aceptación de los términos y condiciones (73 usuarios online)