tablaturas, partituras y acordes para guitarra
Busca por banda/artista:
 
y/o título de la canción:
A B C D E F G H I J K L M N O P Q R S T U V W X Y Z 0 1 2 3 4 5 6 7 8 9 / Top 100 tabs
Categorías
Usuarios
usuario:
Darse de alta
password:
Artistas más visitados
Publicidad
TOP acordes y tablaturas de los Panchos


Estás en: Inicio > Letra l > Acordes y tablaturas de los Panchos > Nuestro amor
Nuestro amor
de los Panchos
Puntúa este acorde/tab:      
(0.4/5)
Reportar este acorde/tab
  Añadir a tus favoritos
  Imprimir
Esta es una correccion al tab de 
Gerardo Lee Calera Aguirre (RE5TO@LATINMAIL.COM)

En sol mayor  Requinto con capotrasto en el tercer
traste, (version original del trio los panchos).
__      
                                         
   1|---2-3-5-5-5-5-3-5-3-2-3-4-5-----------
 ) 2|---------------------------------------
   3|---------------------------------------
   4|---------------------------------------
 ) 5|---------------------------------------
   6|---------------------------------------
__/


_                  acordes 
                  Fa  Mi7                     
   1|--3-5-3-2-----1-1--0-0---0---0--------0-
 ) 2|----------5-3-1-1--0----3---3---3-0-1---
   3|--------------2-2--1--------------------
   4|--------------3-3--2--------------------
 ) 5|----------------------------------------
   6|----------------------------------------
__/


                            acorde  
                           Sol                   
   1|---2-3-2-3-4-5-3-5-3-2--3---------------
 ) 2|------------------------3---------------
   3|------------------------4---------------
   4|------------------------5---------------
 ) 5|----------------------------------------
   6|----------------------------------------
__/
		   
AcordesyTabs.com © 2008 Acordes y Tablaturas para guitarra. Tabs and Chords for guitar. Aviso Legal - Contacto
El uso de este sitio está sujeto a la aceptación de los términos y condiciones (20 usuarios online)